ISO-10303-21;
HEADER;
FILE_DESCRIPTION (( 'STEP AP214' ),
    '1' );
FILE_NAME ('6510060',
    '2019-02-01T12:50:07',
    ( '' ),
    ('JUGARD+KÜNSTNER GmbH'),
    'SwSTEP 2.0',
    'SolidWorks 2017',
    '' );
FILE_SCHEMA (( 'AUTOMOTIVE_DESIGN' ));
ENDSEC;

DATA;
#1 = EDGE_LOOP ( 'NONE', ( #48, #169, #227, #59 ) ) ;
#2 = FILL_AREA_STYLE ('',( #111 ) ) ;
#3 = FILL_AREA_STYLE ('',( #171 ) ) ;
#4 = VECTOR ( 'NONE', #110, 1000.000000000000000 ) ;
#5 = EDGE_CURVE ( 'NONE', #7, #146, #132, .T. ) ;
#6 = PLANE ( 'NONE',  #97 ) ;
#7 = VERTEX_POINT ( 'NONE', #150 ) ;
#8 = APPLICATION_PROTOCOL_DEFINITION ( 'draft international standard', 'automotive_design', 1998, #92 ) ;
#9 = CARTESIAN_POINT ( 'NONE',  ( 500.0000000000000000, 250.0000000000000000, 5.000000000000000000 ) ) ;
#10 = CARTESIAN_POINT ( 'NONE',  ( -500.0000000000000000, 250.0000000000000000, 0.0000000000000000000 ) ) ;
#11 = PRESENTATION_STYLE_ASSIGNMENT (( #58 ) ) ;
#12 = ORIENTED_EDGE ( 'NONE', *, *, #166, .F. ) ;
#13 = VECTOR ( 'NONE', #55, 1000.000000000000000 ) ;
#14 = STYLED_ITEM ( 'NONE', ( #11 ), #193 ) ;
#15 = DIRECTION ( 'NONE',  ( 0.0000000000000000000, 0.0000000000000000000, 1.000000000000000000 ) ) ;
#16 = SURFACE_STYLE_FILL_AREA ( #3 ) ;
#17 = STYLED_ITEM ( 'NONE', ( #60 ), #142 ) ;
#18 = DIRECTION ( 'NONE',  ( 1.000000000000000000, 0.0000000000000000000, -0.0000000000000000000 ) ) ;
#19 = FACE_OUTER_BOUND ( 'NONE', #1, .T. ) ;
#20 = DIRECTION ( 'NONE',  ( 1.000000000000000000, 0.0000000000000000000, 0.0000000000000000000 ) ) ;
#21 = FACE_OUTER_BOUND ( 'NONE', #78, .T. ) ;
#22 = AXIS2_PLACEMENT_3D ( 'NONE', #127, #129, #109 ) ;
#23 = DIRECTION ( 'NONE',  ( 0.0000000000000000000, -1.000000000000000000, -0.0000000000000000000 ) ) ;
#24 = ORIENTED_EDGE ( 'NONE', *, *, #147, .F. ) ;
#25 = DIRECTION ( 'NONE',  ( 0.0000000000000000000, 0.0000000000000000000, 1.000000000000000000 ) ) ;
#26 = VECTOR ( 'NONE', #35, 1000.000000000000000 ) ;
#27 = PRESENTATION_LAYER_ASSIGNMENT (  '', '', ( #14 ) ) ;
#28 = ORIENTED_EDGE ( 'NONE', *, *, #5, .T. ) ;
#29 = ORIENTED_EDGE ( 'NONE', *, *, #208, .F. ) ;
#30 = AXIS2_PLACEMENT_3D ( 'NONE', #67, #38, #199 ) ;
#31 = PRODUCT_DEFINITION_CONTEXT ( 'detailed design', #219, 'design' ) ;
#32 = FACE_OUTER_BOUND ( 'NONE', #180, .T. ) ;
#33 = CARTESIAN_POINT ( 'NONE',  ( -500.0000000000000000, -250.0000000000000000, 5.000000000000000000 ) ) ;
#34 = AXIS2_PLACEMENT_3D ( 'NONE', #202, #39, #43 ) ;
#35 = DIRECTION ( 'NONE',  ( 1.000000000000000000, 0.0000000000000000000, -0.0000000000000000000 ) ) ;
#36 = PLANE ( 'NONE',  #144 ) ;
#37 = LINE ( 'NONE', #33, #76 ) ;
#38 = DIRECTION ( 'NONE',  ( 0.0000000000000000000, 1.000000000000000000, 0.0000000000000000000 ) ) ;
#39 = DIRECTION ( 'NONE',  ( 0.0000000000000000000, 0.0000000000000000000, 1.000000000000000000 ) ) ;
#40 = MECHANICAL_DESIGN_GEOMETRIC_PRESENTATION_REPRESENTATION (  '', ( #14 ), #61 ) ;
#41 = VECTOR ( 'NONE', #52, 1000.000000000000000 ) ;
#42 = CARTESIAN_POINT ( 'NONE',  ( -500.0000000000000000, 250.0000000000000000, 5.000000000000000000 ) ) ;
#43 = DIRECTION ( 'NONE',  ( 1.000000000000000000, 0.0000000000000000000, -0.0000000000000000000 ) ) ;
#44 = DIRECTION ( 'NONE',  ( 0.0000000000000000000, 0.0000000000000000000, -1.000000000000000000 ) ) ;
#45 = STYLED_ITEM ( 'NONE', ( #108 ), #68 ) ;
#46 = PRODUCT_DEFINITION_SHAPE ( 'NONE', 'NONE',  #178 ) ;
#47 = ADVANCED_FACE ( 'NONE', ( #186 ), #107, .F. ) ;
#48 = ORIENTED_EDGE ( 'NONE', *, *, #104, .F. ) ;
#49 =( GEOMETRIC_REPRESENTATION_CONTEXT ( 3 ) GLOBAL_UNCERTAINTY_ASSIGNED_CONTEXT ( ( #155 ) ) GLOBAL_UNIT_ASSIGNED_CONTEXT ( ( #96, #137, #56 ) ) REPRESENTATION_CONTEXT ( 'NONE', 'WORKASPACE' ) );
#50 = LINE ( 'NONE', #160, #13 ) ;
#51 = EDGE_CURVE ( 'NONE', #117, #207, #174, .T. ) ;
#52 = DIRECTION ( 'NONE',  ( 0.0000000000000000000, 0.0000000000000000000, 1.000000000000000000 ) ) ;
#53 = CARTESIAN_POINT ( 'NONE',  ( 500.0000000000000000, 250.0000000000000000, 0.0000000000000000000 ) ) ;
#54 =( NAMED_UNIT ( * ) PLANE_ANGLE_UNIT ( ) SI_UNIT ( $, .RADIAN. ) );
#55 = DIRECTION ( 'NONE',  ( 0.0000000000000000000, -1.000000000000000000, -0.0000000000000000000 ) ) ;
#56 =( NAMED_UNIT ( * ) SI_UNIT ( $, .STERADIAN. ) SOLID_ANGLE_UNIT ( ) );
#57 = ORIENTED_EDGE ( 'NONE', *, *, #104, .T. ) ;
#58 = SURFACE_STYLE_USAGE ( .BOTH. , #173 ) ;
#59 = ORIENTED_EDGE ( 'NONE', *, *, #208, .T. ) ;
#60 = PRESENTATION_STYLE_ASSIGNMENT (( #131 ) ) ;
#61 =( GEOMETRIC_REPRESENTATION_CONTEXT ( 3 ) GLOBAL_UNCERTAINTY_ASSIGNED_CONTEXT ( ( #213 ) ) GLOBAL_UNIT_ASSIGNED_CONTEXT ( ( #187, #221, #116 ) ) REPRESENTATION_CONTEXT ( 'NONE', 'WORKASPACE' ) );
#62 = UNCERTAINTY_MEASURE_WITH_UNIT (LENGTH_MEASURE( 1.000000000000000100E-005 ), #151, 'distance_accuracy_value', 'NONE');
#63 = LINE ( 'NONE', #42, #192 ) ;
#64 = FACE_OUTER_BOUND ( 'NONE', #149, .T. ) ;
#65 = SURFACE_STYLE_USAGE ( .BOTH. , #154 ) ;
#66 = DIRECTION ( 'NONE',  ( -0.0000000000000000000, 0.0000000000000000000, 1.000000000000000000 ) ) ;
#67 = CARTESIAN_POINT ( 'NONE',  ( -500.0000000000000000, -250.0000000000000000, 5.000000000000000000 ) ) ;
#68 = ADVANCED_BREP_SHAPE_REPRESENTATION ( '6510060_CNAJF00', ( #142, #194 ), #49 ) ;
#69 = SURFACE_STYLE_FILL_AREA ( #190 ) ;
#70 = CARTESIAN_POINT ( 'NONE',  ( 500.0000000000000000, -250.0000000000000000, 5.000000000000000000 ) ) ;
#71 = EDGE_LOOP ( 'NONE', ( #164, #158, #225, #29 ) ) ;
#72 = CARTESIAN_POINT ( 'NONE',  ( 0.0000000000000000000, 0.0000000000000000000, 0.0000000000000000000 ) ) ;
#73 =( NAMED_UNIT ( * ) SI_UNIT ( $, .STERADIAN. ) SOLID_ANGLE_UNIT ( ) );
#74 = CLOSED_SHELL ( 'NONE', ( #193, #223, #47, #99, #141, #101 ) ) ;
#75 = CARTESIAN_POINT ( 'NONE',  ( -500.0000000000000000, -250.0000000000000000, 5.000000000000000000 ) ) ;
#76 = VECTOR ( 'NONE', #170, 1000.000000000000000 ) ;
#77 = LINE ( 'NONE', #196, #105 ) ;
#78 = EDGE_LOOP ( 'NONE', ( #220, #136, #102, #205 ) ) ;
#79 = EDGE_CURVE ( 'NONE', #117, #222, #77, .T. ) ;
#80 = SHAPE_DEFINITION_REPRESENTATION ( #46, #68 ) ;
#81 = LINE ( 'NONE', #87, #4 ) ;
#82 =( GEOMETRIC_REPRESENTATION_CONTEXT ( 3 ) GLOBAL_UNCERTAINTY_ASSIGNED_CONTEXT ( ( #62 ) ) GLOBAL_UNIT_ASSIGNED_CONTEXT ( ( #151, #84, #229 ) ) REPRESENTATION_CONTEXT ( 'NONE', 'WORKASPACE' ) );
#83 = ORIENTED_EDGE ( 'NONE', *, *, #51, .T. ) ;
#84 =( NAMED_UNIT ( * ) PLANE_ANGLE_UNIT ( ) SI_UNIT ( $, .RADIAN. ) );
#85 = SURFACE_SIDE_STYLE ('',( #113 ) ) ;
#86 = PRODUCT_RELATED_PRODUCT_CATEGORY ( 'part', '', ( #134 ) ) ;
#87 = CARTESIAN_POINT ( 'NONE',  ( 500.0000000000000000, 250.0000000000000000, 5.000000000000000000 ) ) ;
#88 = EDGE_LOOP ( 'NONE', ( #200, #93, #124, #106 ) ) ;
#89 =( NAMED_UNIT ( * ) SI_UNIT ( $, .STERADIAN. ) SOLID_ANGLE_UNIT ( ) );
#90 = DIRECTION ( 'NONE',  ( 1.000000000000000000, 0.0000000000000000000, -0.0000000000000000000 ) ) ;
#91 = FACE_OUTER_BOUND ( 'NONE', #71, .T. ) ;
#92 = APPLICATION_CONTEXT ( 'automotive_design' ) ;
#93 = ORIENTED_EDGE ( 'NONE', *, *, #103, .F. ) ;
#94 = PRODUCT_CONTEXT ( 'NONE', #92, 'mechanical' ) ;
#95 = PRODUCT_DEFINITION_FORMATION_WITH_SPECIFIED_SOURCE ( 'ANY', '', #134, .NOT_KNOWN. ) ;
#96 =( LENGTH_UNIT ( ) NAMED_UNIT ( * ) SI_UNIT ( .MILLI., .METRE. ) );
#97 = AXIS2_PLACEMENT_3D ( 'NONE', #163, #20, #44 ) ;
#98 = PLANE ( 'NONE',  #34 ) ;
#99 = ADVANCED_FACE ( 'NONE', ( #64 ), #172, .F. ) ;
#100 = ORIENTED_EDGE ( 'NONE', *, *, #165, .T. ) ;
#101 = ADVANCED_FACE ( 'NONE', ( #21 ), #36, .T. ) ;
#102 = ORIENTED_EDGE ( 'NONE', *, *, #189, .T. ) ;
#103 = EDGE_CURVE ( 'NONE', #207, #167, #81, .T. ) ;
#104 = EDGE_CURVE ( 'NONE', #188, #7, #37, .T. ) ;
#105 = VECTOR ( 'NONE', #128, 1000.000000000000000 ) ;
#106 = ORIENTED_EDGE ( 'NONE', *, *, #79, .T. ) ;
#107 = PLANE ( 'NONE',  #206 ) ;
#108 = PRESENTATION_STYLE_ASSIGNMENT (( #185 ) ) ;
#109 = DIRECTION ( 'NONE',  ( 0.0000000000000000000, 0.0000000000000000000, 1.000000000000000000 ) ) ;
#110 = DIRECTION ( 'NONE',  ( -1.000000000000000000, -0.0000000000000000000, -0.0000000000000000000 ) ) ;
#111 = FILL_AREA_STYLE_COLOUR ( '', #168 ) ;
#112 = DIRECTION ( 'NONE',  ( -0.0000000000000000000, 1.000000000000000000, 0.0000000000000000000 ) ) ;
#113 = SURFACE_STYLE_FILL_AREA ( #2 ) ;
#114 = APPLICATION_PROTOCOL_DEFINITION ( 'draft international standard', 'automotive_design', 1998, #219 ) ;
#115 = FILL_AREA_STYLE ('',( #157 ) ) ;
#116 =( NAMED_UNIT ( * ) SI_UNIT ( $, .STERADIAN. ) SOLID_ANGLE_UNIT ( ) );
#117 = VERTEX_POINT ( 'NONE', #53 ) ;
#118 =( LENGTH_UNIT ( ) NAMED_UNIT ( * ) SI_UNIT ( .MILLI., .METRE. ) );
#119 = UNCERTAINTY_MEASURE_WITH_UNIT (LENGTH_MEASURE( 1.000000000000000100E-005 ), #182, 'distance_accuracy_value', 'NONE');
#120 = LINE ( 'NONE', #211, #162 ) ;
#121 = PRESENTATION_LAYER_ASSIGNMENT (  '', '', ( #125 ) ) ;
#122 = PRESENTATION_LAYER_ASSIGNMENT (  '', '', ( #45 ) ) ;
#123 = COLOUR_RGB ( '',0.7529411764705882200, 0.7529411764705882200, 0.7529411764705882200 ) ;
#124 = ORIENTED_EDGE ( 'NONE', *, *, #51, .F. ) ;
#125 = STYLED_ITEM ( 'NONE', ( #209 ), #101 ) ;
#126 = ORIENTED_EDGE ( 'NONE', *, *, #147, .T. ) ;
#127 = CARTESIAN_POINT ( 'NONE',  ( 500.0000000000000000, -250.0000000000000000, 5.000000000000000000 ) ) ;
#128 = DIRECTION ( 'NONE',  ( -1.000000000000000000, -0.0000000000000000000, 0.0000000000000000000 ) ) ;
#129 = DIRECTION ( 'NONE',  ( -1.000000000000000000, 0.0000000000000000000, 0.0000000000000000000 ) ) ;
#130 = COLOUR_RGB ( '',0.8745098039215686300, 0.9137254901960784000, 1.000000000000000000 ) ;
#131 = SURFACE_STYLE_USAGE ( .BOTH. , #85 ) ;
#132 = LINE ( 'NONE', #214, #26 ) ;
#133 = CARTESIAN_POINT ( 'NONE',  ( 500.0000000000000000, -250.0000000000000000, 0.0000000000000000000 ) ) ;
#134 = PRODUCT ( '6510060_CNAJF00', '6510060_CNAJF00', '', ( #94 ) ) ;
#135 = DIRECTION ( 'NONE',  ( -0.0000000000000000000, -0.0000000000000000000, 1.000000000000000000 ) ) ;
#136 = ORIENTED_EDGE ( 'NONE', *, *, #103, .T. ) ;
#137 =( NAMED_UNIT ( * ) PLANE_ANGLE_UNIT ( ) SI_UNIT ( $, .RADIAN. ) );
#138 = MECHANICAL_DESIGN_GEOMETRIC_PRESENTATION_REPRESENTATION (  '', ( #45 ), #153 ) ;
#139 =( NAMED_UNIT ( * ) PLANE_ANGLE_UNIT ( ) SI_UNIT ( $, .RADIAN. ) );
#140 = VECTOR ( 'NONE', #66, 1000.000000000000000 ) ;
#141 = ADVANCED_FACE ( 'NONE', ( #32 ), #184, .F. ) ;
#142 = MANIFOLD_SOLID_BREP ( 'Importiert1', #74 ) ;
#143 = VERTEX_POINT ( 'NONE', #217 ) ;
#144 = AXIS2_PLACEMENT_3D ( 'NONE', #181, #15, #18 ) ;
#145 = LINE ( 'NONE', #203, #210 ) ;
#146 = VERTEX_POINT ( 'NONE', #133 ) ;
#147 = EDGE_CURVE ( 'NONE', #146, #143, #195, .T. ) ;
#148 = MECHANICAL_DESIGN_GEOMETRIC_PRESENTATION_REPRESENTATION (  '', ( #125 ), #82 ) ;
#149 = EDGE_LOOP ( 'NONE', ( #83, #177, #24, #100 ) ) ;
#150 = CARTESIAN_POINT ( 'NONE',  ( -500.0000000000000000, -250.0000000000000000, 0.0000000000000000000 ) ) ;
#151 =( LENGTH_UNIT ( ) NAMED_UNIT ( * ) SI_UNIT ( .MILLI., .METRE. ) );
#152 = CARTESIAN_POINT ( 'NONE',  ( -500.0000000000000000, 250.0000000000000000, 5.000000000000000000 ) ) ;
#153 =( GEOMETRIC_REPRESENTATION_CONTEXT ( 3 ) GLOBAL_UNCERTAINTY_ASSIGNED_CONTEXT ( ( #230 ) ) GLOBAL_UNIT_ASSIGNED_CONTEXT ( ( #118, #139, #73 ) ) REPRESENTATION_CONTEXT ( 'NONE', 'WORKASPACE' ) );
#154 = SURFACE_SIDE_STYLE ('',( #16 ) ) ;
#155 = UNCERTAINTY_MEASURE_WITH_UNIT (LENGTH_MEASURE( 1.000000000000000100E-005 ), #96, 'distance_accuracy_value', 'NONE');
#156 = VECTOR ( 'NONE', #135, 1000.000000000000000 ) ;
#157 = FILL_AREA_STYLE_COLOUR ( '', #130 ) ;
#158 = ORIENTED_EDGE ( 'NONE', *, *, #165, .F. ) ;
#159 = DIRECTION ( 'NONE',  ( 1.000000000000000000, 0.0000000000000000000, 0.0000000000000000000 ) ) ;
#160 = CARTESIAN_POINT ( 'NONE',  ( -500.0000000000000000, -250.0000000000000000, 0.0000000000000000000 ) ) ;
#161 = DIRECTION ( 'NONE',  ( 0.0000000000000000000, 1.000000000000000000, -0.0000000000000000000 ) ) ;
#162 = VECTOR ( 'NONE', #112, 1000.000000000000000 ) ;
#163 = CARTESIAN_POINT ( 'NONE',  ( -500.0000000000000000, 250.0000000000000000, 5.000000000000000000 ) ) ;
#164 = ORIENTED_EDGE ( 'NONE', *, *, #79, .F. ) ;
#165 = EDGE_CURVE ( 'NONE', #146, #117, #120, .T. ) ;
#166 = EDGE_CURVE ( 'NONE', #188, #143, #215, .T. ) ;
#167 = VERTEX_POINT ( 'NONE', #152 ) ;
#168 = COLOUR_RGB ( '',0.4392156862745098000, 0.1960784313725490200, 0.0000000000000000000 ) ;
#169 = ORIENTED_EDGE ( 'NONE', *, *, #189, .F. ) ;
#170 = DIRECTION ( 'NONE',  ( 0.0000000000000000000, 0.0000000000000000000, -1.000000000000000000 ) ) ;
#171 = FILL_AREA_STYLE_COLOUR ( '', #216 ) ;
#172 = PLANE ( 'NONE',  #22 ) ;
#173 = SURFACE_SIDE_STYLE ('',( #176 ) ) ;
#174 = LINE ( 'NONE', #212, #140 ) ;
#175 = FILL_AREA_STYLE_COLOUR ( '', #123 ) ;
#176 = SURFACE_STYLE_FILL_AREA ( #115 ) ;
#177 = ORIENTED_EDGE ( 'NONE', *, *, #179, .F. ) ;
#178 = PRODUCT_DEFINITION ( 'UNKNOWN', '', #95, #31 ) ;
#179 = EDGE_CURVE ( 'NONE', #143, #207, #145, .T. ) ;
#180 = EDGE_LOOP ( 'NONE', ( #126, #12, #57, #28 ) ) ;
#181 = CARTESIAN_POINT ( 'NONE',  ( -500.0000000000000000, -250.0000000000000000, 5.000000000000000000 ) ) ;
#182 =( LENGTH_UNIT ( ) NAMED_UNIT ( * ) SI_UNIT ( .MILLI., .METRE. ) );
#183 = CARTESIAN_POINT ( 'NONE',  ( -500.0000000000000000, -250.0000000000000000, 5.000000000000000000 ) ) ;
#184 = PLANE ( 'NONE',  #30 ) ;
#185 = SURFACE_STYLE_USAGE ( .BOTH. , #204 ) ;
#186 = FACE_OUTER_BOUND ( 'NONE', #88, .T. ) ;
#187 =( LENGTH_UNIT ( ) NAMED_UNIT ( * ) SI_UNIT ( .MILLI., .METRE. ) );
#188 = VERTEX_POINT ( 'NONE', #75 ) ;
#189 = EDGE_CURVE ( 'NONE', #167, #188, #63, .T. ) ;
#190 = FILL_AREA_STYLE ('',( #175 ) ) ;
#191 = PRESENTATION_LAYER_ASSIGNMENT (  '', '', ( #17 ) ) ;
#192 = VECTOR ( 'NONE', #23, 1000.000000000000000 ) ;
#193 = ADVANCED_FACE ( 'NONE', ( #91 ), #98, .F. ) ;
#194 = AXIS2_PLACEMENT_3D ( 'NONE', #72, #25, #159 ) ;
#195 = LINE ( 'NONE', #70, #41 ) ;
#196 = CARTESIAN_POINT ( 'NONE',  ( -500.0000000000000000, 250.0000000000000000, 0.0000000000000000000 ) ) ;
#197 = MECHANICAL_DESIGN_GEOMETRIC_PRESENTATION_REPRESENTATION (  '', ( #17 ), #224 ) ;
#198 = DIRECTION ( 'NONE',  ( 0.0000000000000000000, -0.0000000000000000000, -1.000000000000000000 ) ) ;
#199 = DIRECTION ( 'NONE',  ( 0.0000000000000000000, -0.0000000000000000000, 1.000000000000000000 ) ) ;
#200 = ORIENTED_EDGE ( 'NONE', *, *, #201, .T. ) ;
#201 = EDGE_CURVE ( 'NONE', #222, #167, #231, .T. ) ;
#202 = CARTESIAN_POINT ( 'NONE',  ( -500.0000000000000000, -250.0000000000000000, 0.0000000000000000000 ) ) ;
#203 = CARTESIAN_POINT ( 'NONE',  ( 500.0000000000000000, -250.0000000000000000, 5.000000000000000000 ) ) ;
#204 = SURFACE_SIDE_STYLE ('',( #69 ) ) ;
#205 = ORIENTED_EDGE ( 'NONE', *, *, #166, .T. ) ;
#206 = AXIS2_PLACEMENT_3D ( 'NONE', #232, #228, #198 ) ;
#207 = VERTEX_POINT ( 'NONE', #9 ) ;
#208 = EDGE_CURVE ( 'NONE', #222, #7, #50, .T. ) ;
#209 = PRESENTATION_STYLE_ASSIGNMENT (( #65 ) ) ;
#210 = VECTOR ( 'NONE', #161, 1000.000000000000000 ) ;
#211 = CARTESIAN_POINT ( 'NONE',  ( 500.0000000000000000, -250.0000000000000000, 0.0000000000000000000 ) ) ;
#212 = CARTESIAN_POINT ( 'NONE',  ( 500.0000000000000000, 250.0000000000000000, 5.000000000000000000 ) ) ;
#213 = UNCERTAINTY_MEASURE_WITH_UNIT (LENGTH_MEASURE( 1.000000000000000100E-005 ), #187, 'distance_accuracy_value', 'NONE');
#214 = CARTESIAN_POINT ( 'NONE',  ( -500.0000000000000000, -250.0000000000000000, 0.0000000000000000000 ) ) ;
#215 = LINE ( 'NONE', #183, #226 ) ;
#216 = COLOUR_RGB ( '',0.8745098039215686300, 0.9137254901960784000, 1.000000000000000000 ) ;
#217 = CARTESIAN_POINT ( 'NONE',  ( 500.0000000000000000, -250.0000000000000000, 5.000000000000000000 ) ) ;
#218 = CARTESIAN_POINT ( 'NONE',  ( -500.0000000000000000, 250.0000000000000000, 5.000000000000000000 ) ) ;
#219 = APPLICATION_CONTEXT ( 'automotive_design' ) ;
#220 = ORIENTED_EDGE ( 'NONE', *, *, #179, .T. ) ;
#221 =( NAMED_UNIT ( * ) PLANE_ANGLE_UNIT ( ) SI_UNIT ( $, .RADIAN. ) );
#222 = VERTEX_POINT ( 'NONE', #10 ) ;
#223 = ADVANCED_FACE ( 'NONE', ( #19 ), #6, .F. ) ;
#224 =( GEOMETRIC_REPRESENTATION_CONTEXT ( 3 ) GLOBAL_UNCERTAINTY_ASSIGNED_CONTEXT ( ( #119 ) ) GLOBAL_UNIT_ASSIGNED_CONTEXT ( ( #182, #54, #89 ) ) REPRESENTATION_CONTEXT ( 'NONE', 'WORKASPACE' ) );
#225 = ORIENTED_EDGE ( 'NONE', *, *, #5, .F. ) ;
#226 = VECTOR ( 'NONE', #90, 1000.000000000000000 ) ;
#227 = ORIENTED_EDGE ( 'NONE', *, *, #201, .F. ) ;
#228 = DIRECTION ( 'NONE',  ( 0.0000000000000000000, -1.000000000000000000, 0.0000000000000000000 ) ) ;
#229 =( NAMED_UNIT ( * ) SI_UNIT ( $, .STERADIAN. ) SOLID_ANGLE_UNIT ( ) );
#230 = UNCERTAINTY_MEASURE_WITH_UNIT (LENGTH_MEASURE( 1.000000000000000100E-005 ), #118, 'distance_accuracy_value', 'NONE');
#231 = LINE ( 'NONE', #218, #156 ) ;
#232 = CARTESIAN_POINT ( 'NONE',  ( 500.0000000000000000, 250.0000000000000000, 5.000000000000000000 ) ) ;
ENDSEC;
END-ISO-10303-21;
