ISO-10303-21;
HEADER;
FILE_DESCRIPTION (( 'STEP AP214' ),
    '1' );
FILE_NAME ('6510101',
    '2019-02-01T12:50:12',
    ( '' ),
    ('JUGARD+KÜNSTNER GmbH'),
    'SwSTEP 2.0',
    'SolidWorks 2017',
    '' );
FILE_SCHEMA (( 'AUTOMOTIVE_DESIGN' ));
ENDSEC;

DATA;
#1 = VERTEX_POINT ( 'NONE', #138 ) ;
#2 = EDGE_CURVE ( 'NONE', #69, #144, #134, .T. ) ;
#3 = CARTESIAN_POINT ( 'NONE',  ( -1290.000000000000000, 640.0000000000000000, 10.00000000000000000 ) ) ;
#4 = VERTEX_POINT ( 'NONE', #20 ) ;
#5 =( GEOMETRIC_REPRESENTATION_CONTEXT ( 3 ) GLOBAL_UNCERTAINTY_ASSIGNED_CONTEXT ( ( #133 ) ) GLOBAL_UNIT_ASSIGNED_CONTEXT ( ( #182, #135, #15 ) ) REPRESENTATION_CONTEXT ( 'NONE', 'WORKASPACE' ) );
#6 =( NAMED_UNIT ( * ) SI_UNIT ( $, .STERADIAN. ) SOLID_ANGLE_UNIT ( ) );
#7 = CARTESIAN_POINT ( 'NONE',  ( -1290.000000000000000, -640.0000000000000000, 10.00000000000000000 ) ) ;
#8 = EDGE_CURVE ( 'NONE', #196, #217, #173, .T. ) ;
#9 = VECTOR ( 'NONE', #44, 1000.000000000000000 ) ;
#10 = CARTESIAN_POINT ( 'NONE',  ( -1290.000000000000000, 640.0000000000000000, 10.00000000000000000 ) ) ;
#11 = CARTESIAN_POINT ( 'NONE',  ( -1290.000000000000000, -640.0000000000000000, 10.00000000000000000 ) ) ;
#12 = ORIENTED_EDGE ( 'NONE', *, *, #149, .T. ) ;
#13 = STYLED_ITEM ( 'NONE', ( #30 ), #34 ) ;
#14 = DIRECTION ( 'NONE',  ( 1.000000000000000000, 0.0000000000000000000, -0.0000000000000000000 ) ) ;
#15 =( NAMED_UNIT ( * ) SI_UNIT ( $, .STERADIAN. ) SOLID_ANGLE_UNIT ( ) );
#16 = FILL_AREA_STYLE_COLOUR ( '', #107 ) ;
#17 = MECHANICAL_DESIGN_GEOMETRIC_PRESENTATION_REPRESENTATION (  '', ( #13 ), #26 ) ;
#18 = EDGE_LOOP ( 'NONE', ( #97, #60, #82, #37 ) ) ;
#19 = CARTESIAN_POINT ( 'NONE',  ( -1290.000000000000000, 640.0000000000000000, 0.0000000000000000000 ) ) ;
#20 = CARTESIAN_POINT ( 'NONE',  ( -1290.000000000000000, -640.0000000000000000, 10.00000000000000000 ) ) ;
#21 = CARTESIAN_POINT ( 'NONE',  ( -1290.000000000000000, 640.0000000000000000, 10.00000000000000000 ) ) ;
#22 = CARTESIAN_POINT ( 'NONE',  ( 1290.000000000000000, -640.0000000000000000, 10.00000000000000000 ) ) ;
#23 = LINE ( 'NONE', #172, #9 ) ;
#24 = CARTESIAN_POINT ( 'NONE',  ( 1290.000000000000000, -640.0000000000000000, 0.0000000000000000000 ) ) ;
#25 =( LENGTH_UNIT ( ) NAMED_UNIT ( * ) SI_UNIT ( .MILLI., .METRE. ) );
#26 =( GEOMETRIC_REPRESENTATION_CONTEXT ( 3 ) GLOBAL_UNCERTAINTY_ASSIGNED_CONTEXT ( ( #53 ) ) GLOBAL_UNIT_ASSIGNED_CONTEXT ( ( #212, #187, #103 ) ) REPRESENTATION_CONTEXT ( 'NONE', 'WORKASPACE' ) );
#27 = FACE_OUTER_BOUND ( 'NONE', #18, .T. ) ;
#28 = ORIENTED_EDGE ( 'NONE', *, *, #194, .F. ) ;
#29 = VECTOR ( 'NONE', #86, 1000.000000000000000 ) ;
#30 = PRESENTATION_STYLE_ASSIGNMENT (( #215 ) ) ;
#31 = CARTESIAN_POINT ( 'NONE',  ( 1290.000000000000000, -640.0000000000000000, 0.0000000000000000000 ) ) ;
#32 = SURFACE_STYLE_FILL_AREA ( #204 ) ;
#33 = ORIENTED_EDGE ( 'NONE', *, *, #209, .T. ) ;
#34 = ADVANCED_FACE ( 'NONE', ( #161 ), #216, .F. ) ;
#35 = LINE ( 'NONE', #130, #117 ) ;
#36 = CARTESIAN_POINT ( 'NONE',  ( -1290.000000000000000, -640.0000000000000000, 10.00000000000000000 ) ) ;
#37 = ORIENTED_EDGE ( 'NONE', *, *, #158, .T. ) ;
#38 = DIRECTION ( 'NONE',  ( -0.0000000000000000000, -0.0000000000000000000, 1.000000000000000000 ) ) ;
#39 = FACE_OUTER_BOUND ( 'NONE', #225, .T. ) ;
#40 = FILL_AREA_STYLE ('',( #221 ) ) ;
#41 = PRODUCT_DEFINITION_CONTEXT ( 'detailed design', #147, 'design' ) ;
#42 = CARTESIAN_POINT ( 'NONE',  ( 0.0000000000000000000, 0.0000000000000000000, 0.0000000000000000000 ) ) ;
#43 =( LENGTH_UNIT ( ) NAMED_UNIT ( * ) SI_UNIT ( .MILLI., .METRE. ) );
#44 = DIRECTION ( 'NONE',  ( 1.000000000000000000, 0.0000000000000000000, -0.0000000000000000000 ) ) ;
#45 = ORIENTED_EDGE ( 'NONE', *, *, #149, .F. ) ;
#46 = UNCERTAINTY_MEASURE_WITH_UNIT (LENGTH_MEASURE( 1.000000000000000100E-005 ), #43, 'distance_accuracy_value', 'NONE');
#47 = EDGE_CURVE ( 'NONE', #144, #4, #96, .T. ) ;
#48 = COLOUR_RGB ( '',0.8745098039215686300, 0.9137254901960784000, 1.000000000000000000 ) ;
#49 = EDGE_LOOP ( 'NONE', ( #28, #214, #136, #45 ) ) ;
#50 =( GEOMETRIC_REPRESENTATION_CONTEXT ( 3 ) GLOBAL_UNCERTAINTY_ASSIGNED_CONTEXT ( ( #167 ) ) GLOBAL_UNIT_ASSIGNED_CONTEXT ( ( #25, #176, #6 ) ) REPRESENTATION_CONTEXT ( 'NONE', 'WORKASPACE' ) );
#51 = PRESENTATION_STYLE_ASSIGNMENT (( #131 ) ) ;
#52 = ORIENTED_EDGE ( 'NONE', *, *, #185, .F. ) ;
#53 = UNCERTAINTY_MEASURE_WITH_UNIT (LENGTH_MEASURE( 1.000000000000000100E-005 ), #212, 'distance_accuracy_value', 'NONE');
#54 = ADVANCED_FACE ( 'NONE', ( #155 ), #169, .F. ) ;
#55 = CARTESIAN_POINT ( 'NONE',  ( -1290.000000000000000, -640.0000000000000000, 0.0000000000000000000 ) ) ;
#56 = ORIENTED_EDGE ( 'NONE', *, *, #137, .T. ) ;
#57 = CARTESIAN_POINT ( 'NONE',  ( 1290.000000000000000, -640.0000000000000000, 10.00000000000000000 ) ) ;
#58 = DIRECTION ( 'NONE',  ( 0.0000000000000000000, 1.000000000000000000, 0.0000000000000000000 ) ) ;
#59 = AXIS2_PLACEMENT_3D ( 'NONE', #42, #153, #94 ) ;
#60 = ORIENTED_EDGE ( 'NONE', *, *, #100, .T. ) ;
#61 = DIRECTION ( 'NONE',  ( 0.0000000000000000000, 0.0000000000000000000, 1.000000000000000000 ) ) ;
#62 = SURFACE_STYLE_USAGE ( .BOTH. , #220 ) ;
#63 = AXIS2_PLACEMENT_3D ( 'NONE', #10, #218, #192 ) ;
#64 =( NAMED_UNIT ( * ) PLANE_ANGLE_UNIT ( ) SI_UNIT ( $, .RADIAN. ) );
#65 = LINE ( 'NONE', #205, #160 ) ;
#66 = VECTOR ( 'NONE', #105, 1000.000000000000000 ) ;
#67 = DIRECTION ( 'NONE',  ( -0.0000000000000000000, 1.000000000000000000, 0.0000000000000000000 ) ) ;
#68 = AXIS2_PLACEMENT_3D ( 'NONE', #122, #120, #139 ) ;
#69 = VERTEX_POINT ( 'NONE', #19 ) ;
#70 = PRODUCT_DEFINITION ( 'UNKNOWN', '', #80, #41 ) ;
#71 = PRESENTATION_STYLE_ASSIGNMENT (( #62 ) ) ;
#72 = APPLICATION_CONTEXT ( 'automotive_design' ) ;
#73 = ADVANCED_FACE ( 'NONE', ( #125 ), #157, .F. ) ;
#74 = VECTOR ( 'NONE', #79, 1000.000000000000000 ) ;
#75 = CLOSED_SHELL ( 'NONE', ( #34, #152, #150, #54, #73, #211 ) ) ;
#76 = MECHANICAL_DESIGN_GEOMETRIC_PRESENTATION_REPRESENTATION (  '', ( #165 ), #5 ) ;
#77 = AXIS2_PLACEMENT_3D ( 'NONE', #190, #90, #85 ) ;
#78 = PRODUCT ( '6510101_CNAJF00', '6510101_CNAJF00', '', ( #201 ) ) ;
#79 = DIRECTION ( 'NONE',  ( 0.0000000000000000000, -1.000000000000000000, -0.0000000000000000000 ) ) ;
#80 = PRODUCT_DEFINITION_FORMATION_WITH_SPECIFIED_SOURCE ( 'ANY', '', #78, .NOT_KNOWN. ) ;
#81 = LINE ( 'NONE', #24, #224 ) ;
#82 = ORIENTED_EDGE ( 'NONE', *, *, #47, .T. ) ;
#83 = CARTESIAN_POINT ( 'NONE',  ( -1290.000000000000000, -640.0000000000000000, 0.0000000000000000000 ) ) ;
#84 = VERTEX_POINT ( 'NONE', #55 ) ;
#85 = DIRECTION ( 'NONE',  ( 0.0000000000000000000, -0.0000000000000000000, -1.000000000000000000 ) ) ;
#86 = DIRECTION ( 'NONE',  ( 0.0000000000000000000, -1.000000000000000000, -0.0000000000000000000 ) ) ;
#87 = PRESENTATION_LAYER_ASSIGNMENT (  '', '', ( #165 ) ) ;
#88 = VECTOR ( 'NONE', #146, 1000.000000000000000 ) ;
#89 = ORIENTED_EDGE ( 'NONE', *, *, #223, .F. ) ;
#90 = DIRECTION ( 'NONE',  ( 0.0000000000000000000, -1.000000000000000000, 0.0000000000000000000 ) ) ;
#91 = PRESENTATION_LAYER_ASSIGNMENT (  '', '', ( #229 ) ) ;
#92 = APPLICATION_PROTOCOL_DEFINITION ( 'draft international standard', 'automotive_design', 1998, #72 ) ;
#93 = PRODUCT_RELATED_PRODUCT_CATEGORY ( 'part', '', ( #78 ) ) ;
#94 = DIRECTION ( 'NONE',  ( 1.000000000000000000, 0.0000000000000000000, 0.0000000000000000000 ) ) ;
#95 = LINE ( 'NONE', #83, #29 ) ;
#96 = LINE ( 'NONE', #21, #74 ) ;
#97 = ORIENTED_EDGE ( 'NONE', *, *, #202, .T. ) ;
#98 = AXIS2_PLACEMENT_3D ( 'NONE', #57, #213, #203 ) ;
#99 = MANIFOLD_SOLID_BREP ( 'Importiert1', #75 ) ;
#100 = EDGE_CURVE ( 'NONE', #121, #144, #222, .T. ) ;
#101 = CARTESIAN_POINT ( 'NONE',  ( 1290.000000000000000, -640.0000000000000000, 10.00000000000000000 ) ) ;
#102 = SHAPE_DEFINITION_REPRESENTATION ( #219, #140 ) ;
#103 =( NAMED_UNIT ( * ) SI_UNIT ( $, .STERADIAN. ) SOLID_ANGLE_UNIT ( ) );
#104 = MECHANICAL_DESIGN_GEOMETRIC_PRESENTATION_REPRESENTATION (  '', ( #229 ), #116 ) ;
#105 = DIRECTION ( 'NONE',  ( -1.000000000000000000, -0.0000000000000000000, -0.0000000000000000000 ) ) ;
#106 = CARTESIAN_POINT ( 'NONE',  ( -1290.000000000000000, 640.0000000000000000, 10.00000000000000000 ) ) ;
#107 = COLOUR_RGB ( '',0.7529411764705882200, 0.7529411764705882200, 0.7529411764705882200 ) ;
#108 = SURFACE_STYLE_FILL_AREA ( #124 ) ;
#109 = CARTESIAN_POINT ( 'NONE',  ( 1290.000000000000000, 640.0000000000000000, 10.00000000000000000 ) ) ;
#110 = STYLED_ITEM ( 'NONE', ( #71 ), #99 ) ;
#111 = COLOUR_RGB ( '',0.8745098039215686300, 0.9137254901960784000, 1.000000000000000000 ) ;
#112 = PLANE ( 'NONE',  #118 ) ;
#113 =( GEOMETRIC_REPRESENTATION_CONTEXT ( 3 ) GLOBAL_UNCERTAINTY_ASSIGNED_CONTEXT ( ( #228 ) ) GLOBAL_UNIT_ASSIGNED_CONTEXT ( ( #180, #114, #115 ) ) REPRESENTATION_CONTEXT ( 'NONE', 'WORKASPACE' ) );
#114 =( NAMED_UNIT ( * ) PLANE_ANGLE_UNIT ( ) SI_UNIT ( $, .RADIAN. ) );
#115 =( NAMED_UNIT ( * ) SI_UNIT ( $, .STERADIAN. ) SOLID_ANGLE_UNIT ( ) );
#116 =( GEOMETRIC_REPRESENTATION_CONTEXT ( 3 ) GLOBAL_UNCERTAINTY_ASSIGNED_CONTEXT ( ( #46 ) ) GLOBAL_UNIT_ASSIGNED_CONTEXT ( ( #43, #64, #197 ) ) REPRESENTATION_CONTEXT ( 'NONE', 'WORKASPACE' ) );
#117 = VECTOR ( 'NONE', #142, 1000.000000000000000 ) ;
#118 = AXIS2_PLACEMENT_3D ( 'NONE', #123, #226, #14 ) ;
#119 = AXIS2_PLACEMENT_3D ( 'NONE', #36, #58, #206 ) ;
#120 = DIRECTION ( 'NONE',  ( 0.0000000000000000000, 0.0000000000000000000, 1.000000000000000000 ) ) ;
#121 = VERTEX_POINT ( 'NONE', #109 ) ;
#122 = CARTESIAN_POINT ( 'NONE',  ( -1290.000000000000000, -640.0000000000000000, 0.0000000000000000000 ) ) ;
#123 = CARTESIAN_POINT ( 'NONE',  ( -1290.000000000000000, -640.0000000000000000, 10.00000000000000000 ) ) ;
#124 = FILL_AREA_STYLE ('',( #174 ) ) ;
#125 = FACE_OUTER_BOUND ( 'NONE', #199, .T. ) ;
#126 = PLANE ( 'NONE',  #63 ) ;
#127 = CARTESIAN_POINT ( 'NONE',  ( 1290.000000000000000, -640.0000000000000000, 10.00000000000000000 ) ) ;
#128 = VECTOR ( 'NONE', #61, 1000.000000000000000 ) ;
#129 = EDGE_LOOP ( 'NONE', ( #89, #166, #179, #12 ) ) ;
#130 = CARTESIAN_POINT ( 'NONE',  ( -1290.000000000000000, 640.0000000000000000, 0.0000000000000000000 ) ) ;
#131 = SURFACE_STYLE_USAGE ( .BOTH. , #132 ) ;
#132 = SURFACE_SIDE_STYLE ('',( #148 ) ) ;
#133 = UNCERTAINTY_MEASURE_WITH_UNIT (LENGTH_MEASURE( 1.000000000000000100E-005 ), #182, 'distance_accuracy_value', 'NONE');
#134 = LINE ( 'NONE', #3, #186 ) ;
#135 =( NAMED_UNIT ( * ) PLANE_ANGLE_UNIT ( ) SI_UNIT ( $, .RADIAN. ) );
#136 = ORIENTED_EDGE ( 'NONE', *, *, #137, .F. ) ;
#137 = EDGE_CURVE ( 'NONE', #84, #196, #23, .T. ) ;
#138 = CARTESIAN_POINT ( 'NONE',  ( 1290.000000000000000, 640.0000000000000000, 0.0000000000000000000 ) ) ;
#139 = DIRECTION ( 'NONE',  ( 1.000000000000000000, 0.0000000000000000000, -0.0000000000000000000 ) ) ;
#140 = ADVANCED_BREP_SHAPE_REPRESENTATION ( '6510101_CNAJF00', ( #99, #59 ), #113 ) ;
#141 = ORIENTED_EDGE ( 'NONE', *, *, #8, .F. ) ;
#142 = DIRECTION ( 'NONE',  ( -1.000000000000000000, -0.0000000000000000000, 0.0000000000000000000 ) ) ;
#143 = SURFACE_SIDE_STYLE ('',( #195 ) ) ;
#144 = VERTEX_POINT ( 'NONE', #106 ) ;
#145 = PRESENTATION_LAYER_ASSIGNMENT (  '', '', ( #110 ) ) ;
#146 = DIRECTION ( 'NONE',  ( 1.000000000000000000, 0.0000000000000000000, -0.0000000000000000000 ) ) ;
#147 = APPLICATION_CONTEXT ( 'automotive_design' ) ;
#148 = SURFACE_STYLE_FILL_AREA ( #200 ) ;
#149 = EDGE_CURVE ( 'NONE', #69, #84, #95, .T. ) ;
#150 = ADVANCED_FACE ( 'NONE', ( #39 ), #207, .F. ) ;
#151 = APPLICATION_PROTOCOL_DEFINITION ( 'draft international standard', 'automotive_design', 1998, #147 ) ;
#152 = ADVANCED_FACE ( 'NONE', ( #198 ), #126, .F. ) ;
#153 = DIRECTION ( 'NONE',  ( 0.0000000000000000000, 0.0000000000000000000, 1.000000000000000000 ) ) ;
#154 = PRESENTATION_LAYER_ASSIGNMENT (  '', '', ( #13 ) ) ;
#155 = FACE_OUTER_BOUND ( 'NONE', #159, .T. ) ;
#156 = ORIENTED_EDGE ( 'NONE', *, *, #223, .T. ) ;
#157 = PLANE ( 'NONE',  #119 ) ;
#158 = EDGE_CURVE ( 'NONE', #4, #217, #164, .T. ) ;
#159 = EDGE_LOOP ( 'NONE', ( #188, #231, #141, #33 ) ) ;
#160 = VECTOR ( 'NONE', #162, 1000.000000000000000 ) ;
#161 = FACE_OUTER_BOUND ( 'NONE', #49, .T. ) ;
#162 = DIRECTION ( 'NONE',  ( -0.0000000000000000000, 0.0000000000000000000, 1.000000000000000000 ) ) ;
#163 = CARTESIAN_POINT ( 'NONE',  ( 1290.000000000000000, 640.0000000000000000, 10.00000000000000000 ) ) ;
#164 = LINE ( 'NONE', #7, #88 ) ;
#165 = STYLED_ITEM ( 'NONE', ( #51 ), #140 ) ;
#166 = ORIENTED_EDGE ( 'NONE', *, *, #47, .F. ) ;
#167 = UNCERTAINTY_MEASURE_WITH_UNIT (LENGTH_MEASURE( 1.000000000000000100E-005 ), #25, 'distance_accuracy_value', 'NONE');
#168 = SURFACE_SIDE_STYLE ('',( #32 ) ) ;
#169 = PLANE ( 'NONE',  #98 ) ;
#170 = DIRECTION ( 'NONE',  ( 0.0000000000000000000, 0.0000000000000000000, -1.000000000000000000 ) ) ;
#171 = VECTOR ( 'NONE', #175, 1000.000000000000000 ) ;
#172 = CARTESIAN_POINT ( 'NONE',  ( -1290.000000000000000, -640.0000000000000000, 0.0000000000000000000 ) ) ;
#173 = LINE ( 'NONE', #101, #128 ) ;
#174 = FILL_AREA_STYLE_COLOUR ( '', #181 ) ;
#175 = DIRECTION ( 'NONE',  ( 0.0000000000000000000, 1.000000000000000000, -0.0000000000000000000 ) ) ;
#176 =( NAMED_UNIT ( * ) PLANE_ANGLE_UNIT ( ) SI_UNIT ( $, .RADIAN. ) );
#177 = VECTOR ( 'NONE', #170, 1000.000000000000000 ) ;
#178 = ORIENTED_EDGE ( 'NONE', *, *, #2, .T. ) ;
#179 = ORIENTED_EDGE ( 'NONE', *, *, #2, .F. ) ;
#180 =( LENGTH_UNIT ( ) NAMED_UNIT ( * ) SI_UNIT ( .MILLI., .METRE. ) );
#181 = COLOUR_RGB ( '',0.4392156862745098000, 0.1960784313725490200, 0.0000000000000000000 ) ;
#182 =( LENGTH_UNIT ( ) NAMED_UNIT ( * ) SI_UNIT ( .MILLI., .METRE. ) );
#183 = LINE ( 'NONE', #11, #177 ) ;
#184 = ORIENTED_EDGE ( 'NONE', *, *, #100, .F. ) ;
#185 = EDGE_CURVE ( 'NONE', #1, #121, #65, .T. ) ;
#186 = VECTOR ( 'NONE', #38, 1000.000000000000000 ) ;
#187 =( NAMED_UNIT ( * ) PLANE_ANGLE_UNIT ( ) SI_UNIT ( $, .RADIAN. ) );
#188 = ORIENTED_EDGE ( 'NONE', *, *, #185, .T. ) ;
#189 = FILL_AREA_STYLE_COLOUR ( '', #111 ) ;
#190 = CARTESIAN_POINT ( 'NONE',  ( 1290.000000000000000, 640.0000000000000000, 10.00000000000000000 ) ) ;
#191 = SURFACE_STYLE_USAGE ( .BOTH. , #143 ) ;
#192 = DIRECTION ( 'NONE',  ( 0.0000000000000000000, 0.0000000000000000000, -1.000000000000000000 ) ) ;
#193 = ORIENTED_EDGE ( 'NONE', *, *, #8, .T. ) ;
#194 = EDGE_CURVE ( 'NONE', #1, #69, #35, .T. ) ;
#195 = SURFACE_STYLE_FILL_AREA ( #40 ) ;
#196 = VERTEX_POINT ( 'NONE', #31 ) ;
#197 =( NAMED_UNIT ( * ) SI_UNIT ( $, .STERADIAN. ) SOLID_ANGLE_UNIT ( ) );
#198 = FACE_OUTER_BOUND ( 'NONE', #129, .T. ) ;
#199 = EDGE_LOOP ( 'NONE', ( #193, #210, #156, #56 ) ) ;
#200 = FILL_AREA_STYLE ('',( #16 ) ) ;
#201 = PRODUCT_CONTEXT ( 'NONE', #72, 'mechanical' ) ;
#202 = EDGE_CURVE ( 'NONE', #217, #121, #208, .T. ) ;
#203 = DIRECTION ( 'NONE',  ( 0.0000000000000000000, 0.0000000000000000000, 1.000000000000000000 ) ) ;
#204 = FILL_AREA_STYLE ('',( #189 ) ) ;
#205 = CARTESIAN_POINT ( 'NONE',  ( 1290.000000000000000, 640.0000000000000000, 10.00000000000000000 ) ) ;
#206 = DIRECTION ( 'NONE',  ( 0.0000000000000000000, -0.0000000000000000000, 1.000000000000000000 ) ) ;
#207 = PLANE ( 'NONE',  #77 ) ;
#208 = LINE ( 'NONE', #127, #171 ) ;
#209 = EDGE_CURVE ( 'NONE', #196, #1, #81, .T. ) ;
#210 = ORIENTED_EDGE ( 'NONE', *, *, #158, .F. ) ;
#211 = ADVANCED_FACE ( 'NONE', ( #27 ), #112, .T. ) ;
#212 =( LENGTH_UNIT ( ) NAMED_UNIT ( * ) SI_UNIT ( .MILLI., .METRE. ) );
#213 = DIRECTION ( 'NONE',  ( -1.000000000000000000, 0.0000000000000000000, 0.0000000000000000000 ) ) ;
#214 = ORIENTED_EDGE ( 'NONE', *, *, #209, .F. ) ;
#215 = SURFACE_STYLE_USAGE ( .BOTH. , #168 ) ;
#216 = PLANE ( 'NONE',  #68 ) ;
#217 = VERTEX_POINT ( 'NONE', #22 ) ;
#218 = DIRECTION ( 'NONE',  ( 1.000000000000000000, 0.0000000000000000000, 0.0000000000000000000 ) ) ;
#219 = PRODUCT_DEFINITION_SHAPE ( 'NONE', 'NONE',  #70 ) ;
#220 = SURFACE_SIDE_STYLE ('',( #108 ) ) ;
#221 = FILL_AREA_STYLE_COLOUR ( '', #48 ) ;
#222 = LINE ( 'NONE', #163, #66 ) ;
#223 = EDGE_CURVE ( 'NONE', #4, #84, #183, .T. ) ;
#224 = VECTOR ( 'NONE', #67, 1000.000000000000000 ) ;
#225 = EDGE_LOOP ( 'NONE', ( #178, #184, #52, #227 ) ) ;
#226 = DIRECTION ( 'NONE',  ( 0.0000000000000000000, 0.0000000000000000000, 1.000000000000000000 ) ) ;
#227 = ORIENTED_EDGE ( 'NONE', *, *, #194, .T. ) ;
#228 = UNCERTAINTY_MEASURE_WITH_UNIT (LENGTH_MEASURE( 1.000000000000000100E-005 ), #180, 'distance_accuracy_value', 'NONE');
#229 = STYLED_ITEM ( 'NONE', ( #230 ), #211 ) ;
#230 = PRESENTATION_STYLE_ASSIGNMENT (( #191 ) ) ;
#231 = ORIENTED_EDGE ( 'NONE', *, *, #202, .F. ) ;
#232 = MECHANICAL_DESIGN_GEOMETRIC_PRESENTATION_REPRESENTATION (  '', ( #110 ), #50 ) ;
ENDSEC;
END-ISO-10303-21;
