ISO-10303-21;
HEADER;
FILE_DESCRIPTION (( 'STEP AP214' ),
    '1' );
FILE_NAME ('6520152',
    '2019-02-01T12:50:06',
    ( '' ),
    ('JUGARD+KÜNSTNER GmbH'),
    'SwSTEP 2.0',
    'SolidWorks 2017',
    '' );
FILE_SCHEMA (( 'AUTOMOTIVE_DESIGN' ));
ENDSEC;

DATA;
#1 = EDGE_LOOP ( 'NONE', ( #20, #22, #94, #58 ) ) ;
#2 = VECTOR ( 'NONE', #66, 1000.000000000000000 ) ;
#3 = STYLED_ITEM ( 'NONE', ( #202 ), #156 ) ;
#4 = AXIS2_PLACEMENT_3D ( 'NONE', #54, #112, #116 ) ;
#5 = ORIENTED_EDGE ( 'NONE', *, *, #84, .F. ) ;
#6 = FACE_OUTER_BOUND ( 'NONE', #49, .T. ) ;
#7 = CARTESIAN_POINT ( 'NONE',  ( -500.0000000000000000, 250.0000000000000000, 6.000000000000000000 ) ) ;
#8 = CARTESIAN_POINT ( 'NONE',  ( 500.0000000000000000, -250.0000000000000000, 6.000000000000000000 ) ) ;
#9 = ADVANCED_FACE ( 'NONE', ( #74 ), #91, .F. ) ;
#10 = CARTESIAN_POINT ( 'NONE',  ( -500.0000000000000000, -250.0000000000000000, 6.000000000000000000 ) ) ;
#11 = CARTESIAN_POINT ( 'NONE',  ( -500.0000000000000000, 250.0000000000000000, 0.0000000000000000000 ) ) ;
#12 = EDGE_CURVE ( 'NONE', #190, #105, #160, .T. ) ;
#13 = FACE_OUTER_BOUND ( 'NONE', #183, .T. ) ;
#14 = FILL_AREA_STYLE_COLOUR ( '', #41 ) ;
#15 = AXIS2_PLACEMENT_3D ( 'NONE', #77, #126, #166 ) ;
#16 = PRODUCT_DEFINITION_CONTEXT ( 'detailed design', #138, 'design' ) ;
#17 =( NAMED_UNIT ( * ) PLANE_ANGLE_UNIT ( ) SI_UNIT ( $, .RADIAN. ) );
#18 = VECTOR ( 'NONE', #127, 1000.000000000000000 ) ;
#19 = EDGE_LOOP ( 'NONE', ( #169, #150, #153, #107 ) ) ;
#20 = ORIENTED_EDGE ( 'NONE', *, *, #108, .T. ) ;
#21 = ADVANCED_FACE ( 'NONE', ( #13 ), #165, .F. ) ;
#22 = ORIENTED_EDGE ( 'NONE', *, *, #177, .F. ) ;
#23 = LINE ( 'NONE', #135, #46 ) ;
#24 = AXIS2_PLACEMENT_3D ( 'NONE', #32, #113, #45 ) ;
#25 = DIRECTION ( 'NONE',  ( 0.0000000000000000000, 1.000000000000000000, 0.0000000000000000000 ) ) ;
#26 = AXIS2_PLACEMENT_3D ( 'NONE', #171, #104, #50 ) ;
#27 = SURFACE_STYLE_USAGE ( .BOTH. , #110 ) ;
#28 = DIRECTION ( 'NONE',  ( 0.0000000000000000000, -0.0000000000000000000, 1.000000000000000000 ) ) ;
#29 = DIRECTION ( 'NONE',  ( 0.0000000000000000000, 0.0000000000000000000, 1.000000000000000000 ) ) ;
#30 = VECTOR ( 'NONE', #29, 1000.000000000000000 ) ;
#31 = CARTESIAN_POINT ( 'NONE',  ( 500.0000000000000000, -250.0000000000000000, 6.000000000000000000 ) ) ;
#32 = CARTESIAN_POINT ( 'NONE',  ( -500.0000000000000000, -250.0000000000000000, 6.000000000000000000 ) ) ;
#33 = DIRECTION ( 'NONE',  ( 1.000000000000000000, 0.0000000000000000000, 0.0000000000000000000 ) ) ;
#34 = ORIENTED_EDGE ( 'NONE', *, *, #157, .T. ) ;
#35 = CARTESIAN_POINT ( 'NONE',  ( -500.0000000000000000, 250.0000000000000000, 0.0000000000000000000 ) ) ;
#36 = ORIENTED_EDGE ( 'NONE', *, *, #175, .T. ) ;
#37 = MECHANICAL_DESIGN_GEOMETRIC_PRESENTATION_REPRESENTATION (  '', ( #3 ), #118 ) ;
#38 = LINE ( 'NONE', #155, #191 ) ;
#39 = CARTESIAN_POINT ( 'NONE',  ( -500.0000000000000000, -250.0000000000000000, 6.000000000000000000 ) ) ;
#40 = VERTEX_POINT ( 'NONE', #39 ) ;
#41 = COLOUR_RGB ( '',0.7529411764705882200, 0.7529411764705882200, 0.7529411764705882200 ) ;
#42 = EDGE_CURVE ( 'NONE', #81, #40, #68, .T. ) ;
#43 = CARTESIAN_POINT ( 'NONE',  ( -500.0000000000000000, 250.0000000000000000, 6.000000000000000000 ) ) ;
#44 =( NAMED_UNIT ( * ) PLANE_ANGLE_UNIT ( ) SI_UNIT ( $, .RADIAN. ) );
#45 = DIRECTION ( 'NONE',  ( 1.000000000000000000, 0.0000000000000000000, -0.0000000000000000000 ) ) ;
#46 = VECTOR ( 'NONE', #57, 1000.000000000000000 ) ;
#47 = DIRECTION ( 'NONE',  ( -0.0000000000000000000, 0.0000000000000000000, 1.000000000000000000 ) ) ;
#48 = SURFACE_SIDE_STYLE ('',( #122 ) ) ;
#49 = EDGE_LOOP ( 'NONE', ( #36, #120, #124, #62 ) ) ;
#50 = DIRECTION ( 'NONE',  ( 1.000000000000000000, 0.0000000000000000000, 0.0000000000000000000 ) ) ;
#51 = LINE ( 'NONE', #109, #2 ) ;
#52 = MECHANICAL_DESIGN_GEOMETRIC_PRESENTATION_REPRESENTATION (  '', ( #151 ), #188 ) ;
#53 = VECTOR ( 'NONE', #55, 1000.000000000000000 ) ;
#54 = CARTESIAN_POINT ( 'NONE',  ( -500.0000000000000000, -250.0000000000000000, 0.0000000000000000000 ) ) ;
#55 = DIRECTION ( 'NONE',  ( 0.0000000000000000000, -1.000000000000000000, -0.0000000000000000000 ) ) ;
#56 = VERTEX_POINT ( 'NONE', #149 ) ;
#57 = DIRECTION ( 'NONE',  ( 0.0000000000000000000, 1.000000000000000000, -0.0000000000000000000 ) ) ;
#58 = ORIENTED_EDGE ( 'NONE', *, *, #167, .T. ) ;
#59 = COLOUR_RGB ( '',1.000000000000000000, 1.000000000000000000, 1.000000000000000000 ) ;
#60 = CARTESIAN_POINT ( 'NONE',  ( 500.0000000000000000, 250.0000000000000000, 6.000000000000000000 ) ) ;
#61 = DIRECTION ( 'NONE',  ( -1.000000000000000000, -0.0000000000000000000, 0.0000000000000000000 ) ) ;
#62 = ORIENTED_EDGE ( 'NONE', *, *, #173, .T. ) ;
#63 = LINE ( 'NONE', #31, #30 ) ;
#64 = FILL_AREA_STYLE ('',( #164 ) ) ;
#65 = EDGE_LOOP ( 'NONE', ( #98, #90, #101, #85 ) ) ;
#66 = DIRECTION ( 'NONE',  ( 1.000000000000000000, 0.0000000000000000000, -0.0000000000000000000 ) ) ;
#67 = ADVANCED_FACE ( 'NONE', ( #95 ), #196, .F. ) ;
#68 = LINE ( 'NONE', #43, #18 ) ;
#69 = DIRECTION ( 'NONE',  ( 1.000000000000000000, 0.0000000000000000000, -0.0000000000000000000 ) ) ;
#70 = APPLICATION_PROTOCOL_DEFINITION ( 'draft international standard', 'automotive_design', 1998, #189 ) ;
#71 = LINE ( 'NONE', #168, #89 ) ;
#72 =( NAMED_UNIT ( * ) SI_UNIT ( $, .STERADIAN. ) SOLID_ANGLE_UNIT ( ) );
#73 = UNCERTAINTY_MEASURE_WITH_UNIT (LENGTH_MEASURE( 1.000000000000000100E-005 ), #82, 'distance_accuracy_value', 'NONE');
#74 = FACE_OUTER_BOUND ( 'NONE', #65, .T. ) ;
#75 = ORIENTED_EDGE ( 'NONE', *, *, #96, .F. ) ;
#76 = VECTOR ( 'NONE', #47, 1000.000000000000000 ) ;
#77 = CARTESIAN_POINT ( 'NONE',  ( 500.0000000000000000, -250.0000000000000000, 6.000000000000000000 ) ) ;
#78 = VERTEX_POINT ( 'NONE', #8 ) ;
#79 = DIRECTION ( 'NONE',  ( -1.000000000000000000, -0.0000000000000000000, -0.0000000000000000000 ) ) ;
#80 = DIRECTION ( 'NONE',  ( -0.0000000000000000000, -0.0000000000000000000, 1.000000000000000000 ) ) ;
#81 = VERTEX_POINT ( 'NONE', #7 ) ;
#82 =( LENGTH_UNIT ( ) NAMED_UNIT ( * ) SI_UNIT ( .MILLI., .METRE. ) );
#83 = VECTOR ( 'NONE', #79, 1000.000000000000000 ) ;
#84 = EDGE_CURVE ( 'NONE', #105, #92, #51, .T. ) ;
#85 = ORIENTED_EDGE ( 'NONE', *, *, #84, .T. ) ;
#86 = MANIFOLD_SOLID_BREP ( 'Importiert1', #192 ) ;
#87 = PRESENTATION_LAYER_ASSIGNMENT (  '', '', ( #3 ) ) ;
#88 = ADVANCED_FACE ( 'NONE', ( #174 ), #195, .F. ) ;
#89 = VECTOR ( 'NONE', #69, 1000.000000000000000 ) ;
#90 = ORIENTED_EDGE ( 'NONE', *, *, #173, .F. ) ;
#91 = PLANE ( 'NONE',  #106 ) ;
#92 = VERTEX_POINT ( 'NONE', #97 ) ;
#93 = CARTESIAN_POINT ( 'NONE',  ( -500.0000000000000000, -250.0000000000000000, 0.0000000000000000000 ) ) ;
#94 = ORIENTED_EDGE ( 'NONE', *, *, #157, .F. ) ;
#95 = FACE_OUTER_BOUND ( 'NONE', #1, .T. ) ;
#96 = EDGE_CURVE ( 'NONE', #92, #78, #63, .T. ) ;
#97 = CARTESIAN_POINT ( 'NONE',  ( 500.0000000000000000, -250.0000000000000000, 0.0000000000000000000 ) ) ;
#98 = ORIENTED_EDGE ( 'NONE', *, *, #96, .T. ) ;
#99 = FILL_AREA_STYLE ('',( #14 ) ) ;
#100 = PRODUCT ( '6520152_CNAJF00', '6520152_CNAJF00', '', ( #119 ) ) ;
#101 = ORIENTED_EDGE ( 'NONE', *, *, #140, .T. ) ;
#102 = LINE ( 'NONE', #131, #142 ) ;
#103 = EDGE_CURVE ( 'NONE', #92, #56, #133, .T. ) ;
#104 = DIRECTION ( 'NONE',  ( 0.0000000000000000000, 0.0000000000000000000, 1.000000000000000000 ) ) ;
#105 = VERTEX_POINT ( 'NONE', #93 ) ;
#106 = AXIS2_PLACEMENT_3D ( 'NONE', #10, #25, #28 ) ;
#107 = ORIENTED_EDGE ( 'NONE', *, *, #12, .T. ) ;
#108 = EDGE_CURVE ( 'NONE', #190, #81, #38, .T. ) ;
#109 = CARTESIAN_POINT ( 'NONE',  ( -500.0000000000000000, -250.0000000000000000, 0.0000000000000000000 ) ) ;
#110 = SURFACE_SIDE_STYLE ('',( #176 ) ) ;
#111 =( GEOMETRIC_REPRESENTATION_CONTEXT ( 3 ) GLOBAL_UNCERTAINTY_ASSIGNED_CONTEXT ( ( #186 ) ) GLOBAL_UNIT_ASSIGNED_CONTEXT ( ( #132, #44, #184 ) ) REPRESENTATION_CONTEXT ( 'NONE', 'WORKASPACE' ) );
#112 = DIRECTION ( 'NONE',  ( 0.0000000000000000000, 0.0000000000000000000, 1.000000000000000000 ) ) ;
#113 = DIRECTION ( 'NONE',  ( 0.0000000000000000000, 0.0000000000000000000, 1.000000000000000000 ) ) ;
#114 = ORIENTED_EDGE ( 'NONE', *, *, #103, .F. ) ;
#115 = SHAPE_DEFINITION_REPRESENTATION ( #200, #156 ) ;
#116 = DIRECTION ( 'NONE',  ( 1.000000000000000000, 0.0000000000000000000, -0.0000000000000000000 ) ) ;
#117 = DIRECTION ( 'NONE',  ( 0.0000000000000000000, 0.0000000000000000000, -1.000000000000000000 ) ) ;
#118 =( GEOMETRIC_REPRESENTATION_CONTEXT ( 3 ) GLOBAL_UNCERTAINTY_ASSIGNED_CONTEXT ( ( #73 ) ) GLOBAL_UNIT_ASSIGNED_CONTEXT ( ( #82, #17, #72 ) ) REPRESENTATION_CONTEXT ( 'NONE', 'WORKASPACE' ) );
#119 = PRODUCT_CONTEXT ( 'NONE', #189, 'mechanical' ) ;
#120 = ORIENTED_EDGE ( 'NONE', *, *, #177, .T. ) ;
#121 = PRESENTATION_LAYER_ASSIGNMENT (  '', '', ( #151 ) ) ;
#122 = SURFACE_STYLE_FILL_AREA ( #99 ) ;
#123 = AXIS2_PLACEMENT_3D ( 'NONE', #199, #33, #198 ) ;
#124 = ORIENTED_EDGE ( 'NONE', *, *, #42, .T. ) ;
#125 = DIRECTION ( 'NONE',  ( 0.0000000000000000000, -1.000000000000000000, 0.0000000000000000000 ) ) ;
#126 = DIRECTION ( 'NONE',  ( -1.000000000000000000, 0.0000000000000000000, 0.0000000000000000000 ) ) ;
#127 = DIRECTION ( 'NONE',  ( 0.0000000000000000000, -1.000000000000000000, -0.0000000000000000000 ) ) ;
#128 = EDGE_LOOP ( 'NONE', ( #162, #114, #5, #137 ) ) ;
#129 = LINE ( 'NONE', #35, #141 ) ;
#130 = ADVANCED_FACE ( 'NONE', ( #6 ), #185, .T. ) ;
#131 = CARTESIAN_POINT ( 'NONE',  ( -500.0000000000000000, -250.0000000000000000, 6.000000000000000000 ) ) ;
#132 =( LENGTH_UNIT ( ) NAMED_UNIT ( * ) SI_UNIT ( .MILLI., .METRE. ) );
#133 = LINE ( 'NONE', #134, #143 ) ;
#134 = CARTESIAN_POINT ( 'NONE',  ( 500.0000000000000000, -250.0000000000000000, 0.0000000000000000000 ) ) ;
#135 = CARTESIAN_POINT ( 'NONE',  ( 500.0000000000000000, -250.0000000000000000, 6.000000000000000000 ) ) ;
#136 =( NAMED_UNIT ( * ) PLANE_ANGLE_UNIT ( ) SI_UNIT ( $, .RADIAN. ) );
#137 = ORIENTED_EDGE ( 'NONE', *, *, #12, .F. ) ;
#138 = APPLICATION_CONTEXT ( 'automotive_design' ) ;
#139 = PRODUCT_DEFINITION_FORMATION_WITH_SPECIFIED_SOURCE ( 'ANY', '', #100, .NOT_KNOWN. ) ;
#140 = EDGE_CURVE ( 'NONE', #40, #105, #102, .T. ) ;
#141 = VECTOR ( 'NONE', #61, 1000.000000000000000 ) ;
#142 = VECTOR ( 'NONE', #117, 1000.000000000000000 ) ;
#143 = VECTOR ( 'NONE', #181, 1000.000000000000000 ) ;
#144 = ORIENTED_EDGE ( 'NONE', *, *, #175, .F. ) ;
#145 = UNCERTAINTY_MEASURE_WITH_UNIT (LENGTH_MEASURE( 1.000000000000000100E-005 ), #178, 'distance_accuracy_value', 'NONE');
#146 = CARTESIAN_POINT ( 'NONE',  ( -500.0000000000000000, -250.0000000000000000, 0.0000000000000000000 ) ) ;
#147 = DIRECTION ( 'NONE',  ( 0.0000000000000000000, -0.0000000000000000000, -1.000000000000000000 ) ) ;
#148 = PRODUCT_RELATED_PRODUCT_CATEGORY ( 'part', '', ( #100 ) ) ;
#149 = CARTESIAN_POINT ( 'NONE',  ( 500.0000000000000000, 250.0000000000000000, 0.0000000000000000000 ) ) ;
#150 = ORIENTED_EDGE ( 'NONE', *, *, #42, .F. ) ;
#151 = STYLED_ITEM ( 'NONE', ( #193 ), #86 ) ;
#152 =( NAMED_UNIT ( * ) SI_UNIT ( $, .STERADIAN. ) SOLID_ANGLE_UNIT ( ) );
#153 = ORIENTED_EDGE ( 'NONE', *, *, #108, .F. ) ;
#154 = ADVANCED_FACE ( 'NONE', ( #172 ), #201, .F. ) ;
#155 = CARTESIAN_POINT ( 'NONE',  ( -500.0000000000000000, 250.0000000000000000, 6.000000000000000000 ) ) ;
#156 = ADVANCED_BREP_SHAPE_REPRESENTATION ( '6520152_CNAJF00', ( #86, #26 ), #111 ) ;
#157 = EDGE_CURVE ( 'NONE', #56, #197, #161, .T. ) ;
#158 = ORIENTED_EDGE ( 'NONE', *, *, #103, .T. ) ;
#159 = APPLICATION_PROTOCOL_DEFINITION ( 'draft international standard', 'automotive_design', 1998, #138 ) ;
#160 = LINE ( 'NONE', #146, #53 ) ;
#161 = LINE ( 'NONE', #60, #76 ) ;
#162 = ORIENTED_EDGE ( 'NONE', *, *, #167, .F. ) ;
#163 = PRODUCT_DEFINITION ( 'UNKNOWN', '', #139, #16 ) ;
#164 = FILL_AREA_STYLE_COLOUR ( '', #59 ) ;
#165 = PLANE ( 'NONE',  #15 ) ;
#166 = DIRECTION ( 'NONE',  ( 0.0000000000000000000, 0.0000000000000000000, 1.000000000000000000 ) ) ;
#167 = EDGE_CURVE ( 'NONE', #56, #190, #129, .T. ) ;
#168 = CARTESIAN_POINT ( 'NONE',  ( -500.0000000000000000, -250.0000000000000000, 6.000000000000000000 ) ) ;
#169 = ORIENTED_EDGE ( 'NONE', *, *, #140, .F. ) ;
#170 = CARTESIAN_POINT ( 'NONE',  ( 500.0000000000000000, 250.0000000000000000, 6.000000000000000000 ) ) ;
#171 = CARTESIAN_POINT ( 'NONE',  ( 0.0000000000000000000, 0.0000000000000000000, 0.0000000000000000000 ) ) ;
#172 = FACE_OUTER_BOUND ( 'NONE', #19, .T. ) ;
#173 = EDGE_CURVE ( 'NONE', #40, #78, #71, .T. ) ;
#174 = FACE_OUTER_BOUND ( 'NONE', #128, .T. ) ;
#175 = EDGE_CURVE ( 'NONE', #78, #197, #23, .T. ) ;
#176 = SURFACE_STYLE_FILL_AREA ( #64 ) ;
#177 = EDGE_CURVE ( 'NONE', #197, #81, #179, .T. ) ;
#178 =( LENGTH_UNIT ( ) NAMED_UNIT ( * ) SI_UNIT ( .MILLI., .METRE. ) );
#179 = LINE ( 'NONE', #182, #83 ) ;
#180 = CARTESIAN_POINT ( 'NONE',  ( 500.0000000000000000, 250.0000000000000000, 6.000000000000000000 ) ) ;
#181 = DIRECTION ( 'NONE',  ( -0.0000000000000000000, 1.000000000000000000, 0.0000000000000000000 ) ) ;
#182 = CARTESIAN_POINT ( 'NONE',  ( 500.0000000000000000, 250.0000000000000000, 6.000000000000000000 ) ) ;
#183 = EDGE_LOOP ( 'NONE', ( #34, #144, #75, #158 ) ) ;
#184 =( NAMED_UNIT ( * ) SI_UNIT ( $, .STERADIAN. ) SOLID_ANGLE_UNIT ( ) );
#185 = PLANE ( 'NONE',  #24 ) ;
#186 = UNCERTAINTY_MEASURE_WITH_UNIT (LENGTH_MEASURE( 1.000000000000000100E-005 ), #132, 'distance_accuracy_value', 'NONE');
#187 = SURFACE_STYLE_USAGE ( .BOTH. , #48 ) ;
#188 =( GEOMETRIC_REPRESENTATION_CONTEXT ( 3 ) GLOBAL_UNCERTAINTY_ASSIGNED_CONTEXT ( ( #145 ) ) GLOBAL_UNIT_ASSIGNED_CONTEXT ( ( #178, #136, #152 ) ) REPRESENTATION_CONTEXT ( 'NONE', 'WORKASPACE' ) );
#189 = APPLICATION_CONTEXT ( 'automotive_design' ) ;
#190 = VERTEX_POINT ( 'NONE', #11 ) ;
#191 = VECTOR ( 'NONE', #80, 1000.000000000000000 ) ;
#192 = CLOSED_SHELL ( 'NONE', ( #88, #154, #67, #21, #9, #130 ) ) ;
#193 = PRESENTATION_STYLE_ASSIGNMENT (( #27 ) ) ;
#194 = AXIS2_PLACEMENT_3D ( 'NONE', #180, #125, #147 ) ;
#195 = PLANE ( 'NONE',  #4 ) ;
#196 = PLANE ( 'NONE',  #194 ) ;
#197 = VERTEX_POINT ( 'NONE', #170 ) ;
#198 = DIRECTION ( 'NONE',  ( 0.0000000000000000000, 0.0000000000000000000, -1.000000000000000000 ) ) ;
#199 = CARTESIAN_POINT ( 'NONE',  ( -500.0000000000000000, 250.0000000000000000, 6.000000000000000000 ) ) ;
#200 = PRODUCT_DEFINITION_SHAPE ( 'NONE', 'NONE',  #163 ) ;
#201 = PLANE ( 'NONE',  #123 ) ;
#202 = PRESENTATION_STYLE_ASSIGNMENT (( #187 ) ) ;
ENDSEC;
END-ISO-10303-21;
