ISO-10303-21;
HEADER;
FILE_DESCRIPTION (( 'STEP AP214' ),
    '1' );
FILE_NAME ('6520157',
    '2019-02-01T12:48:10',
    ( '' ),
    ('JUGARD+KÜNSTNER GmbH'),
    'SwSTEP 2.0',
    'SolidWorks 2017',
    '' );
FILE_SCHEMA (( 'AUTOMOTIVE_DESIGN' ));
ENDSEC;

DATA;
#1 =( LENGTH_UNIT ( ) NAMED_UNIT ( * ) SI_UNIT ( .MILLI., .METRE. ) );
#2 = ADVANCED_FACE ( 'NONE', ( #3 ), #166, .F. ) ;
#3 = FACE_OUTER_BOUND ( 'NONE', #122, .T. ) ;
#4 = ADVANCED_FACE ( 'NONE', ( #5 ), #81, .F. ) ;
#5 = FACE_OUTER_BOUND ( 'NONE', #191, .T. ) ;
#6 = ADVANCED_FACE ( 'NONE', ( #187 ), #125, .F. ) ;
#7 = CARTESIAN_POINT ( 'NONE',  ( 0.0000000000000000000, 0.0000000000000000000, 0.0000000000000000000 ) ) ;
#8 =( LENGTH_UNIT ( ) NAMED_UNIT ( * ) SI_UNIT ( .MILLI., .METRE. ) );
#9 = SHAPE_DEFINITION_REPRESENTATION ( #47, #71 ) ;
#10 = VECTOR ( 'NONE', #133, 1000.000000000000000 ) ;
#11 = EDGE_LOOP ( 'NONE', ( #27, #110, #164, #161 ) ) ;
#12 = DIRECTION ( 'NONE',  ( 1.000000000000000000, 0.0000000000000000000, -0.0000000000000000000 ) ) ;
#13 = EDGE_CURVE ( 'NONE', #92, #147, #192, .T. ) ;
#14 = ORIENTED_EDGE ( 'NONE', *, *, #197, .T. ) ;
#15 = ORIENTED_EDGE ( 'NONE', *, *, #76, .T. ) ;
#16 = EDGE_CURVE ( 'NONE', #147, #154, #30, .T. ) ;
#17 = LINE ( 'NONE', #182, #10 ) ;
#18 = ORIENTED_EDGE ( 'NONE', *, *, #86, .T. ) ;
#19 = MECHANICAL_DESIGN_GEOMETRIC_PRESENTATION_REPRESENTATION (  '', ( #124 ), #39 ) ;
#20 = DIRECTION ( 'NONE',  ( 1.000000000000000000, 0.0000000000000000000, -0.0000000000000000000 ) ) ;
#21 = EDGE_CURVE ( 'NONE', #176, #147, #102, .T. ) ;
#22 = LINE ( 'NONE', #116, #136 ) ;
#23 = ORIENTED_EDGE ( 'NONE', *, *, #101, .T. ) ;
#24 =( NAMED_UNIT ( * ) PLANE_ANGLE_UNIT ( ) SI_UNIT ( $, .RADIAN. ) );
#25 = AXIS2_PLACEMENT_3D ( 'NONE', #83, #177, #100 ) ;
#26 = CARTESIAN_POINT ( 'NONE',  ( -500.0000000000000000, -250.0000000000000000, 12.00000000000000000 ) ) ;
#27 = ORIENTED_EDGE ( 'NONE', *, *, #75, .T. ) ;
#28 = CARTESIAN_POINT ( 'NONE',  ( -500.0000000000000000, 250.0000000000000000, 12.00000000000000000 ) ) ;
#29 = PRESENTATION_STYLE_ASSIGNMENT (( #194 ) ) ;
#30 = LINE ( 'NONE', #93, #199 ) ;
#31 = EDGE_LOOP ( 'NONE', ( #33, #198, #23, #109 ) ) ;
#32 = PRODUCT_DEFINITION ( 'UNKNOWN', '', #119, #52 ) ;
#33 = ORIENTED_EDGE ( 'NONE', *, *, #16, .T. ) ;
#34 = UNCERTAINTY_MEASURE_WITH_UNIT (LENGTH_MEASURE( 1.000000000000000100E-005 ), #8, 'distance_accuracy_value', 'NONE');
#35 = ORIENTED_EDGE ( 'NONE', *, *, #197, .F. ) ;
#36 = CARTESIAN_POINT ( 'NONE',  ( -500.0000000000000000, -250.0000000000000000, 0.0000000000000000000 ) ) ;
#37 = SURFACE_STYLE_USAGE ( .BOTH. , #171 ) ;
#38 = VECTOR ( 'NONE', #163, 1000.000000000000000 ) ;
#39 =( GEOMETRIC_REPRESENTATION_CONTEXT ( 3 ) GLOBAL_UNCERTAINTY_ASSIGNED_CONTEXT ( ( #46 ) ) GLOBAL_UNIT_ASSIGNED_CONTEXT ( ( #1, #79, #201 ) ) REPRESENTATION_CONTEXT ( 'NONE', 'WORKASPACE' ) );
#40 = CARTESIAN_POINT ( 'NONE',  ( -500.0000000000000000, -250.0000000000000000, 0.0000000000000000000 ) ) ;
#41 = ORIENTED_EDGE ( 'NONE', *, *, #13, .F. ) ;
#42 = CARTESIAN_POINT ( 'NONE',  ( 500.0000000000000000, 250.0000000000000000, 0.0000000000000000000 ) ) ;
#43 =( NAMED_UNIT ( * ) SI_UNIT ( $, .STERADIAN. ) SOLID_ANGLE_UNIT ( ) );
#44 = PRODUCT_CONTEXT ( 'NONE', #118, 'mechanical' ) ;
#45 = EDGE_LOOP ( 'NONE', ( #184, #170, #60, #14 ) ) ;
#46 = UNCERTAINTY_MEASURE_WITH_UNIT (LENGTH_MEASURE( 1.000000000000000100E-005 ), #1, 'distance_accuracy_value', 'NONE');
#47 = PRODUCT_DEFINITION_SHAPE ( 'NONE', 'NONE',  #32 ) ;
#48 =( GEOMETRIC_REPRESENTATION_CONTEXT ( 3 ) GLOBAL_UNCERTAINTY_ASSIGNED_CONTEXT ( ( #175 ) ) GLOBAL_UNIT_ASSIGNED_CONTEXT ( ( #134, #24, #162 ) ) REPRESENTATION_CONTEXT ( 'NONE', 'WORKASPACE' ) );
#49 = EDGE_CURVE ( 'NONE', #72, #92, #140, .T. ) ;
#50 = ORIENTED_EDGE ( 'NONE', *, *, #107, .F. ) ;
#51 = CARTESIAN_POINT ( 'NONE',  ( 500.0000000000000000, -250.0000000000000000, 0.0000000000000000000 ) ) ;
#52 = PRODUCT_DEFINITION_CONTEXT ( 'detailed design', #82, 'design' ) ;
#53 = CARTESIAN_POINT ( 'NONE',  ( -500.0000000000000000, -250.0000000000000000, 0.0000000000000000000 ) ) ;
#54 = DIRECTION ( 'NONE',  ( -0.0000000000000000000, 0.0000000000000000000, 1.000000000000000000 ) ) ;
#55 = DIRECTION ( 'NONE',  ( 0.0000000000000000000, -1.000000000000000000, -0.0000000000000000000 ) ) ;
#56 = ORIENTED_EDGE ( 'NONE', *, *, #21, .F. ) ;
#57 = DIRECTION ( 'NONE',  ( 0.0000000000000000000, 0.0000000000000000000, 1.000000000000000000 ) ) ;
#58 = AXIS2_PLACEMENT_3D ( 'NONE', #69, #193, #145 ) ;
#59 = LINE ( 'NONE', #174, #195 ) ;
#60 = ORIENTED_EDGE ( 'NONE', *, *, #75, .F. ) ;
#61 = FACE_OUTER_BOUND ( 'NONE', #196, .T. ) ;
#62 = ORIENTED_EDGE ( 'NONE', *, *, #76, .F. ) ;
#63 = DIRECTION ( 'NONE',  ( 0.0000000000000000000, 0.0000000000000000000, 1.000000000000000000 ) ) ;
#64 = DIRECTION ( 'NONE',  ( 0.0000000000000000000, -0.0000000000000000000, -1.000000000000000000 ) ) ;
#65 = SURFACE_STYLE_FILL_AREA ( #84 ) ;
#66 = VERTEX_POINT ( 'NONE', #97 ) ;
#67 = FILL_AREA_STYLE ('',( #94 ) ) ;
#68 =( NAMED_UNIT ( * ) PLANE_ANGLE_UNIT ( ) SI_UNIT ( $, .RADIAN. ) );
#69 = CARTESIAN_POINT ( 'NONE',  ( -500.0000000000000000, 250.0000000000000000, 12.00000000000000000 ) ) ;
#70 = DIRECTION ( 'NONE',  ( 1.000000000000000000, 0.0000000000000000000, 0.0000000000000000000 ) ) ;
#71 = ADVANCED_BREP_SHAPE_REPRESENTATION ( '6520157_CNAJF00', ( #78, #99 ), #156 ) ;
#72 = VERTEX_POINT ( 'NONE', #40 ) ;
#73 = DIRECTION ( 'NONE',  ( 0.0000000000000000000, -0.0000000000000000000, 1.000000000000000000 ) ) ;
#74 = FACE_OUTER_BOUND ( 'NONE', #45, .T. ) ;
#75 = EDGE_CURVE ( 'NONE', #66, #87, #113, .T. ) ;
#76 = EDGE_CURVE ( 'NONE', #92, #155, #151, .T. ) ;
#77 = ORIENTED_EDGE ( 'NONE', *, *, #49, .F. ) ;
#78 = MANIFOLD_SOLID_BREP ( 'Importiert1', #131 ) ;
#79 =( NAMED_UNIT ( * ) PLANE_ANGLE_UNIT ( ) SI_UNIT ( $, .RADIAN. ) );
#80 = DIRECTION ( 'NONE',  ( 1.000000000000000000, 0.0000000000000000000, -0.0000000000000000000 ) ) ;
#81 = PLANE ( 'NONE',  #152 ) ;
#82 = APPLICATION_CONTEXT ( 'automotive_design' ) ;
#83 = CARTESIAN_POINT ( 'NONE',  ( 500.0000000000000000, -250.0000000000000000, 12.00000000000000000 ) ) ;
#84 = FILL_AREA_STYLE ('',( #150 ) ) ;
#85 = DIRECTION ( 'NONE',  ( 0.0000000000000000000, 0.0000000000000000000, 1.000000000000000000 ) ) ;
#86 = EDGE_CURVE ( 'NONE', #176, #72, #121, .T. ) ;
#87 = VERTEX_POINT ( 'NONE', #127 ) ;
#88 = EDGE_CURVE ( 'NONE', #154, #87, #59, .T. ) ;
#89 = ORIENTED_EDGE ( 'NONE', *, *, #186, .T. ) ;
#90 = CARTESIAN_POINT ( 'NONE',  ( -500.0000000000000000, -250.0000000000000000, 12.00000000000000000 ) ) ;
#91 = FACE_OUTER_BOUND ( 'NONE', #31, .T. ) ;
#92 = VERTEX_POINT ( 'NONE', #51 ) ;
#93 = CARTESIAN_POINT ( 'NONE',  ( 500.0000000000000000, -250.0000000000000000, 12.00000000000000000 ) ) ;
#94 = FILL_AREA_STYLE_COLOUR ( '', #202 ) ;
#95 = ADVANCED_FACE ( 'NONE', ( #61 ), #129, .F. ) ;
#96 = VECTOR ( 'NONE', #158, 1000.000000000000000 ) ;
#97 = CARTESIAN_POINT ( 'NONE',  ( -500.0000000000000000, 250.0000000000000000, 0.0000000000000000000 ) ) ;
#98 = ORIENTED_EDGE ( 'NONE', *, *, #49, .T. ) ;
#99 = AXIS2_PLACEMENT_3D ( 'NONE', #7, #57, #70 ) ;
#100 = DIRECTION ( 'NONE',  ( 0.0000000000000000000, 0.0000000000000000000, 1.000000000000000000 ) ) ;
#101 = EDGE_CURVE ( 'NONE', #87, #176, #108, .T. ) ;
#102 = LINE ( 'NONE', #168, #144 ) ;
#103 = APPLICATION_PROTOCOL_DEFINITION ( 'draft international standard', 'automotive_design', 1998, #82 ) ;
#104 = VECTOR ( 'NONE', #20, 1000.000000000000000 ) ;
#105 = DIRECTION ( 'NONE',  ( 0.0000000000000000000, 1.000000000000000000, 0.0000000000000000000 ) ) ;
#106 = PRESENTATION_LAYER_ASSIGNMENT (  '', '', ( #165 ) ) ;
#107 = EDGE_CURVE ( 'NONE', #155, #66, #17, .T. ) ;
#108 = LINE ( 'NONE', #28, #38 ) ;
#109 = ORIENTED_EDGE ( 'NONE', *, *, #21, .T. ) ;
#110 = ORIENTED_EDGE ( 'NONE', *, *, #88, .F. ) ;
#111 = PLANE ( 'NONE',  #126 ) ;
#112 = PRODUCT_RELATED_PRODUCT_CATEGORY ( 'part', '', ( #138 ) ) ;
#113 = LINE ( 'NONE', #159, #183 ) ;
#114 = DIRECTION ( 'NONE',  ( 0.0000000000000000000, -1.000000000000000000, 0.0000000000000000000 ) ) ;
#115 = DIRECTION ( 'NONE',  ( 0.0000000000000000000, 1.000000000000000000, -0.0000000000000000000 ) ) ;
#116 = CARTESIAN_POINT ( 'NONE',  ( 500.0000000000000000, 250.0000000000000000, 12.00000000000000000 ) ) ;
#117 = PLANE ( 'NONE',  #58 ) ;
#118 = APPLICATION_CONTEXT ( 'automotive_design' ) ;
#119 = PRODUCT_DEFINITION_FORMATION_WITH_SPECIFIED_SOURCE ( 'ANY', '', #138, .NOT_KNOWN. ) ;
#120 = CARTESIAN_POINT ( 'NONE',  ( 500.0000000000000000, -250.0000000000000000, 12.00000000000000000 ) ) ;
#121 = LINE ( 'NONE', #90, #96 ) ;
#122 = EDGE_LOOP ( 'NONE', ( #185, #56, #18, #98 ) ) ;
#123 = CARTESIAN_POINT ( 'NONE',  ( 500.0000000000000000, 250.0000000000000000, 12.00000000000000000 ) ) ;
#124 = STYLED_ITEM ( 'NONE', ( #157 ), #78 ) ;
#125 = PLANE ( 'NONE',  #188 ) ;
#126 = AXIS2_PLACEMENT_3D ( 'NONE', #178, #85, #12 ) ;
#127 = CARTESIAN_POINT ( 'NONE',  ( -500.0000000000000000, 250.0000000000000000, 12.00000000000000000 ) ) ;
#128 = DIRECTION ( 'NONE',  ( 1.000000000000000000, 0.0000000000000000000, -0.0000000000000000000 ) ) ;
#129 = PLANE ( 'NONE',  #25 ) ;
#130 = DIRECTION ( 'NONE',  ( -0.0000000000000000000, -0.0000000000000000000, 1.000000000000000000 ) ) ;
#131 = CLOSED_SHELL ( 'NONE', ( #4, #179, #6, #95, #2, #160 ) ) ;
#132 = APPLICATION_PROTOCOL_DEFINITION ( 'draft international standard', 'automotive_design', 1998, #118 ) ;
#133 = DIRECTION ( 'NONE',  ( -1.000000000000000000, -0.0000000000000000000, 0.0000000000000000000 ) ) ;
#134 =( LENGTH_UNIT ( ) NAMED_UNIT ( * ) SI_UNIT ( .MILLI., .METRE. ) );
#135 = CARTESIAN_POINT ( 'NONE',  ( -500.0000000000000000, -250.0000000000000000, 12.00000000000000000 ) ) ;
#136 = VECTOR ( 'NONE', #54, 1000.000000000000000 ) ;
#137 = SURFACE_STYLE_FILL_AREA ( #67 ) ;
#138 = PRODUCT ( '6520157_CNAJF00', '6520157_CNAJF00', '', ( #44 ) ) ;
#139 = AXIS2_PLACEMENT_3D ( 'NONE', #135, #105, #73 ) ;
#140 = LINE ( 'NONE', #53, #104 ) ;
#141 = CARTESIAN_POINT ( 'NONE',  ( 500.0000000000000000, -250.0000000000000000, 12.00000000000000000 ) ) ;
#142 = VECTOR ( 'NONE', #55, 1000.000000000000000 ) ;
#143 = DIRECTION ( 'NONE',  ( -0.0000000000000000000, 1.000000000000000000, 0.0000000000000000000 ) ) ;
#144 = VECTOR ( 'NONE', #80, 1000.000000000000000 ) ;
#145 = DIRECTION ( 'NONE',  ( 0.0000000000000000000, 0.0000000000000000000, -1.000000000000000000 ) ) ;
#146 = CARTESIAN_POINT ( 'NONE',  ( -500.0000000000000000, -250.0000000000000000, 0.0000000000000000000 ) ) ;
#147 = VERTEX_POINT ( 'NONE', #120 ) ;
#148 = SURFACE_SIDE_STYLE ('',( #65 ) ) ;
#149 = PRESENTATION_LAYER_ASSIGNMENT (  '', '', ( #124 ) ) ;
#150 = FILL_AREA_STYLE_COLOUR ( '', #169 ) ;
#151 = LINE ( 'NONE', #190, #167 ) ;
#152 = AXIS2_PLACEMENT_3D ( 'NONE', #36, #63, #128 ) ;
#153 = VECTOR ( 'NONE', #189, 1000.000000000000000 ) ;
#154 = VERTEX_POINT ( 'NONE', #180 ) ;
#155 = VERTEX_POINT ( 'NONE', #42 ) ;
#156 =( GEOMETRIC_REPRESENTATION_CONTEXT ( 3 ) GLOBAL_UNCERTAINTY_ASSIGNED_CONTEXT ( ( #34 ) ) GLOBAL_UNIT_ASSIGNED_CONTEXT ( ( #8, #68, #43 ) ) REPRESENTATION_CONTEXT ( 'NONE', 'WORKASPACE' ) );
#157 = PRESENTATION_STYLE_ASSIGNMENT (( #37 ) ) ;
#158 = DIRECTION ( 'NONE',  ( 0.0000000000000000000, 0.0000000000000000000, -1.000000000000000000 ) ) ;
#159 = CARTESIAN_POINT ( 'NONE',  ( -500.0000000000000000, 250.0000000000000000, 12.00000000000000000 ) ) ;
#160 = ADVANCED_FACE ( 'NONE', ( #91 ), #111, .T. ) ;
#161 = ORIENTED_EDGE ( 'NONE', *, *, #107, .T. ) ;
#162 =( NAMED_UNIT ( * ) SI_UNIT ( $, .STERADIAN. ) SOLID_ANGLE_UNIT ( ) );
#163 = DIRECTION ( 'NONE',  ( 0.0000000000000000000, -1.000000000000000000, -0.0000000000000000000 ) ) ;
#164 = ORIENTED_EDGE ( 'NONE', *, *, #186, .F. ) ;
#165 = STYLED_ITEM ( 'NONE', ( #29 ), #71 ) ;
#166 = PLANE ( 'NONE',  #139 ) ;
#167 = VECTOR ( 'NONE', #143, 1000.000000000000000 ) ;
#168 = CARTESIAN_POINT ( 'NONE',  ( -500.0000000000000000, -250.0000000000000000, 12.00000000000000000 ) ) ;
#169 = COLOUR_RGB ( '',0.7529411764705882200, 0.7529411764705882200, 0.7529411764705882200 ) ;
#170 = ORIENTED_EDGE ( 'NONE', *, *, #101, .F. ) ;
#171 = SURFACE_SIDE_STYLE ('',( #137 ) ) ;
#172 = LINE ( 'NONE', #146, #142 ) ;
#173 = ORIENTED_EDGE ( 'NONE', *, *, #16, .F. ) ;
#174 = CARTESIAN_POINT ( 'NONE',  ( 500.0000000000000000, 250.0000000000000000, 12.00000000000000000 ) ) ;
#175 = UNCERTAINTY_MEASURE_WITH_UNIT (LENGTH_MEASURE( 1.000000000000000100E-005 ), #134, 'distance_accuracy_value', 'NONE');
#176 = VERTEX_POINT ( 'NONE', #26 ) ;
#177 = DIRECTION ( 'NONE',  ( -1.000000000000000000, 0.0000000000000000000, 0.0000000000000000000 ) ) ;
#178 = CARTESIAN_POINT ( 'NONE',  ( -500.0000000000000000, -250.0000000000000000, 12.00000000000000000 ) ) ;
#179 = ADVANCED_FACE ( 'NONE', ( #74 ), #117, .F. ) ;
#180 = CARTESIAN_POINT ( 'NONE',  ( 500.0000000000000000, 250.0000000000000000, 12.00000000000000000 ) ) ;
#181 = MECHANICAL_DESIGN_GEOMETRIC_PRESENTATION_REPRESENTATION (  '', ( #165 ), #48 ) ;
#182 = CARTESIAN_POINT ( 'NONE',  ( -500.0000000000000000, 250.0000000000000000, 0.0000000000000000000 ) ) ;
#183 = VECTOR ( 'NONE', #130, 1000.000000000000000 ) ;
#184 = ORIENTED_EDGE ( 'NONE', *, *, #86, .F. ) ;
#185 = ORIENTED_EDGE ( 'NONE', *, *, #13, .T. ) ;
#186 = EDGE_CURVE ( 'NONE', #155, #154, #22, .T. ) ;
#187 = FACE_OUTER_BOUND ( 'NONE', #11, .T. ) ;
#188 = AXIS2_PLACEMENT_3D ( 'NONE', #123, #114, #64 ) ;
#189 = DIRECTION ( 'NONE',  ( 0.0000000000000000000, 0.0000000000000000000, 1.000000000000000000 ) ) ;
#190 = CARTESIAN_POINT ( 'NONE',  ( 500.0000000000000000, -250.0000000000000000, 0.0000000000000000000 ) ) ;
#191 = EDGE_LOOP ( 'NONE', ( #50, #62, #77, #35 ) ) ;
#192 = LINE ( 'NONE', #141, #153 ) ;
#193 = DIRECTION ( 'NONE',  ( 1.000000000000000000, 0.0000000000000000000, 0.0000000000000000000 ) ) ;
#194 = SURFACE_STYLE_USAGE ( .BOTH. , #148 ) ;
#195 = VECTOR ( 'NONE', #200, 1000.000000000000000 ) ;
#196 = EDGE_LOOP ( 'NONE', ( #89, #173, #41, #15 ) ) ;
#197 = EDGE_CURVE ( 'NONE', #66, #72, #172, .T. ) ;
#198 = ORIENTED_EDGE ( 'NONE', *, *, #88, .T. ) ;
#199 = VECTOR ( 'NONE', #115, 1000.000000000000000 ) ;
#200 = DIRECTION ( 'NONE',  ( -1.000000000000000000, -0.0000000000000000000, -0.0000000000000000000 ) ) ;
#201 =( NAMED_UNIT ( * ) SI_UNIT ( $, .STERADIAN. ) SOLID_ANGLE_UNIT ( ) );
#202 = COLOUR_RGB ( '',1.000000000000000000, 1.000000000000000000, 1.000000000000000000 ) ;
ENDSEC;
END-ISO-10303-21;
