ISO-10303-21;
HEADER;
FILE_DESCRIPTION (( 'STEP AP214' ),
    '1' );
FILE_NAME ('6520205',
    '2019-02-01T12:48:14',
    ( '' ),
    ('JUGARD+KÜNSTNER GmbH'),
    'SwSTEP 2.0',
    'SolidWorks 2017',
    '' );
FILE_SCHEMA (( 'AUTOMOTIVE_DESIGN' ));
ENDSEC;

DATA;
#1 = EDGE_LOOP ( 'NONE', ( #173, #57, #198, #54 ) ) ;
#2 = CARTESIAN_POINT ( 'NONE',  ( -500.0000000000000000, 250.0000000000000000, -7.000000000000000000 ) ) ;
#3 = VECTOR ( 'NONE', #163, 1000.000000000000000 ) ;
#4 = CARTESIAN_POINT ( 'NONE',  ( -500.0000000000000000, -250.0000000000000000, -3.000000000000000000 ) ) ;
#5 =( NAMED_UNIT ( * ) PLANE_ANGLE_UNIT ( ) SI_UNIT ( $, .RADIAN. ) );
#6 = PLANE ( 'NONE',  #29 ) ;
#7 = CARTESIAN_POINT ( 'NONE',  ( 0.0000000000000000000, 0.0000000000000000000, 0.0000000000000000000 ) ) ;
#8 = PLANE ( 'NONE',  #77 ) ;
#9 = VECTOR ( 'NONE', #187, 1000.000000000000000 ) ;
#10 = LINE ( 'NONE', #93, #103 ) ;
#11 = EDGE_LOOP ( 'NONE', ( #160, #152, #108, #61 ) ) ;
#12 = ORIENTED_EDGE ( 'NONE', *, *, #46, .T. ) ;
#13 = VERTEX_POINT ( 'NONE', #2 ) ;
#14 = CARTESIAN_POINT ( 'NONE',  ( 500.0000000000000000, -250.0000000000000000, -7.000000000000000000 ) ) ;
#15 = SURFACE_STYLE_FILL_AREA ( #159 ) ;
#16 = CARTESIAN_POINT ( 'NONE',  ( 500.0000000000000000, 250.0000000000000000, -3.000000000000000000 ) ) ;
#17 = EDGE_LOOP ( 'NONE', ( #200, #122, #91, #24 ) ) ;
#18 = AXIS2_PLACEMENT_3D ( 'NONE', #66, #138, #135 ) ;
#19 = DIRECTION ( 'NONE',  ( 0.0000000000000000000, -0.0000000000000000000, -1.000000000000000000 ) ) ;
#20 =( LENGTH_UNIT ( ) NAMED_UNIT ( * ) SI_UNIT ( .MILLI., .METRE. ) );
#21 = PRESENTATION_STYLE_ASSIGNMENT (( #67 ) ) ;
#22 = MECHANICAL_DESIGN_GEOMETRIC_PRESENTATION_REPRESENTATION (  '', ( #38 ), #60 ) ;
#23 = ADVANCED_BREP_SHAPE_REPRESENTATION ( '6520205_CNAJF00', ( #124, #92 ), #45 ) ;
#24 = ORIENTED_EDGE ( 'NONE', *, *, #89, .T. ) ;
#25 =( NAMED_UNIT ( * ) PLANE_ANGLE_UNIT ( ) SI_UNIT ( $, .RADIAN. ) );
#26 = LINE ( 'NONE', #100, #56 ) ;
#27 = VERTEX_POINT ( 'NONE', #111 ) ;
#28 = PRODUCT ( '6520205_CNAJF00', '6520205_CNAJF00', '', ( #164 ) ) ;
#29 = AXIS2_PLACEMENT_3D ( 'NONE', #128, #69, #116 ) ;
#30 = DIRECTION ( 'NONE',  ( 0.0000000000000000000, -0.0000000000000000000, 1.000000000000000000 ) ) ;
#31 = CARTESIAN_POINT ( 'NONE',  ( -500.0000000000000000, -250.0000000000000000, -7.000000000000000000 ) ) ;
#32 = LINE ( 'NONE', #189, #151 ) ;
#33 = DIRECTION ( 'NONE',  ( -1.000000000000000000, -0.0000000000000000000, -0.0000000000000000000 ) ) ;
#34 = SURFACE_SIDE_STYLE ('',( #15 ) ) ;
#35 = PRODUCT_RELATED_PRODUCT_CATEGORY ( 'part', '', ( #28 ) ) ;
#36 = CARTESIAN_POINT ( 'NONE',  ( 500.0000000000000000, -250.0000000000000000, -7.000000000000000000 ) ) ;
#37 = CARTESIAN_POINT ( 'NONE',  ( 500.0000000000000000, 250.0000000000000000, -3.000000000000000000 ) ) ;
#38 = STYLED_ITEM ( 'NONE', ( #74 ), #23 ) ;
#39 = DIRECTION ( 'NONE',  ( 0.0000000000000000000, 0.0000000000000000000, -1.000000000000000000 ) ) ;
#40 = VERTEX_POINT ( 'NONE', #14 ) ;
#41 = APPLICATION_CONTEXT ( 'automotive_design' ) ;
#42 = ADVANCED_FACE ( 'NONE', ( #155 ), #157, .F. ) ;
#43 = FACE_OUTER_BOUND ( 'NONE', #1, .T. ) ;
#44 = APPLICATION_CONTEXT ( 'automotive_design' ) ;
#45 =( GEOMETRIC_REPRESENTATION_CONTEXT ( 3 ) GLOBAL_UNCERTAINTY_ASSIGNED_CONTEXT ( ( #181 ) ) GLOBAL_UNIT_ASSIGNED_CONTEXT ( ( #20, #5, #145 ) ) REPRESENTATION_CONTEXT ( 'NONE', 'WORKASPACE' ) );
#46 = EDGE_CURVE ( 'NONE', #27, #132, #192, .T. ) ;
#47 = CARTESIAN_POINT ( 'NONE',  ( 500.0000000000000000, -250.0000000000000000, -3.000000000000000000 ) ) ;
#48 = COLOUR_RGB ( '',0.7529411764705882200, 0.7529411764705882200, 0.7529411764705882200 ) ;
#49 =( LENGTH_UNIT ( ) NAMED_UNIT ( * ) SI_UNIT ( .MILLI., .METRE. ) );
#50 = CARTESIAN_POINT ( 'NONE',  ( -500.0000000000000000, -250.0000000000000000, -7.000000000000000000 ) ) ;
#51 = LINE ( 'NONE', #16, #166 ) ;
#52 = PLANE ( 'NONE',  #130 ) ;
#53 = VECTOR ( 'NONE', #171, 1000.000000000000000 ) ;
#54 = ORIENTED_EDGE ( 'NONE', *, *, #109, .T. ) ;
#55 = APPLICATION_PROTOCOL_DEFINITION ( 'draft international standard', 'automotive_design', 1998, #44 ) ;
#56 = VECTOR ( 'NONE', #114, 1000.000000000000000 ) ;
#57 = ORIENTED_EDGE ( 'NONE', *, *, #46, .F. ) ;
#58 = UNCERTAINTY_MEASURE_WITH_UNIT (LENGTH_MEASURE( 1.000000000000000100E-005 ), #153, 'distance_accuracy_value', 'NONE');
#59 = PRODUCT_DEFINITION_CONTEXT ( 'detailed design', #41, 'design' ) ;
#60 =( GEOMETRIC_REPRESENTATION_CONTEXT ( 3 ) GLOBAL_UNCERTAINTY_ASSIGNED_CONTEXT ( ( #58 ) ) GLOBAL_UNIT_ASSIGNED_CONTEXT ( ( #153, #25, #180 ) ) REPRESENTATION_CONTEXT ( 'NONE', 'WORKASPACE' ) );
#61 = ORIENTED_EDGE ( 'NONE', *, *, #89, .F. ) ;
#62 = ORIENTED_EDGE ( 'NONE', *, *, #71, .F. ) ;
#63 = CARTESIAN_POINT ( 'NONE',  ( 500.0000000000000000, -250.0000000000000000, -3.000000000000000000 ) ) ;
#64 = DIRECTION ( 'NONE',  ( -1.000000000000000000, -0.0000000000000000000, 0.0000000000000000000 ) ) ;
#65 = COLOUR_RGB ( '',0.3411764705882353000, 0.3647058823529411600, 0.3803921568627450800 ) ;
#66 = CARTESIAN_POINT ( 'NONE',  ( -500.0000000000000000, -250.0000000000000000, -7.000000000000000000 ) ) ;
#67 = SURFACE_STYLE_USAGE ( .BOTH. , #34 ) ;
#68 = VECTOR ( 'NONE', #96, 1000.000000000000000 ) ;
#69 = DIRECTION ( 'NONE',  ( 0.0000000000000000000, 0.0000000000000000000, 1.000000000000000000 ) ) ;
#70 = DIRECTION ( 'NONE',  ( -1.000000000000000000, 0.0000000000000000000, 0.0000000000000000000 ) ) ;
#71 = EDGE_CURVE ( 'NONE', #132, #167, #51, .T. ) ;
#72 = LINE ( 'NONE', #188, #76 ) ;
#73 = APPLICATION_PROTOCOL_DEFINITION ( 'draft international standard', 'automotive_design', 1998, #41 ) ;
#74 = PRESENTATION_STYLE_ASSIGNMENT (( #177 ) ) ;
#75 = ORIENTED_EDGE ( 'NONE', *, *, #194, .T. ) ;
#76 = VECTOR ( 'NONE', #64, 1000.000000000000000 ) ;
#77 = AXIS2_PLACEMENT_3D ( 'NONE', #37, #175, #19 ) ;
#78 = ORIENTED_EDGE ( 'NONE', *, *, #83, .T. ) ;
#79 = UNCERTAINTY_MEASURE_WITH_UNIT (LENGTH_MEASURE( 1.000000000000000100E-005 ), #49, 'distance_accuracy_value', 'NONE');
#80 = ORIENTED_EDGE ( 'NONE', *, *, #119, .T. ) ;
#81 =( NAMED_UNIT ( * ) SI_UNIT ( $, .STERADIAN. ) SOLID_ANGLE_UNIT ( ) );
#82 = PRODUCT_DEFINITION_SHAPE ( 'NONE', 'NONE',  #179 ) ;
#83 = EDGE_CURVE ( 'NONE', #40, #27, #112, .T. ) ;
#84 = ORIENTED_EDGE ( 'NONE', *, *, #172, .T. ) ;
#85 = CARTESIAN_POINT ( 'NONE',  ( -500.0000000000000000, -250.0000000000000000, -3.000000000000000000 ) ) ;
#86 = LINE ( 'NONE', #36, #53 ) ;
#87 = EDGE_LOOP ( 'NONE', ( #78, #121, #84, #202 ) ) ;
#88 = DIRECTION ( 'NONE',  ( 1.000000000000000000, 0.0000000000000000000, 0.0000000000000000000 ) ) ;
#89 = EDGE_CURVE ( 'NONE', #13, #98, #94, .T. ) ;
#90 = FACE_OUTER_BOUND ( 'NONE', #17, .T. ) ;
#91 = ORIENTED_EDGE ( 'NONE', *, *, #119, .F. ) ;
#92 = AXIS2_PLACEMENT_3D ( 'NONE', #7, #104, #88 ) ;
#93 = CARTESIAN_POINT ( 'NONE',  ( 500.0000000000000000, 250.0000000000000000, -3.000000000000000000 ) ) ;
#94 = LINE ( 'NONE', #50, #140 ) ;
#95 = DIRECTION ( 'NONE',  ( 0.0000000000000000000, 1.000000000000000000, 0.0000000000000000000 ) ) ;
#96 = DIRECTION ( 'NONE',  ( 1.000000000000000000, 0.0000000000000000000, -0.0000000000000000000 ) ) ;
#97 = CARTESIAN_POINT ( 'NONE',  ( -500.0000000000000000, 250.0000000000000000, -3.000000000000000000 ) ) ;
#98 = VERTEX_POINT ( 'NONE', #31 ) ;
#99 = ADVANCED_FACE ( 'NONE', ( #126 ), #141, .F. ) ;
#100 = CARTESIAN_POINT ( 'NONE',  ( -500.0000000000000000, 250.0000000000000000, -3.000000000000000000 ) ) ;
#101 = EDGE_CURVE ( 'NONE', #98, #40, #120, .T. ) ;
#102 = SHAPE_DEFINITION_REPRESENTATION ( #82, #23 ) ;
#103 = VECTOR ( 'NONE', #170, 1000.000000000000000 ) ;
#104 = DIRECTION ( 'NONE',  ( 0.0000000000000000000, 0.0000000000000000000, 1.000000000000000000 ) ) ;
#105 = SURFACE_SIDE_STYLE ('',( #118 ) ) ;
#106 = LINE ( 'NONE', #197, #3 ) ;
#107 = ORIENTED_EDGE ( 'NONE', *, *, #71, .T. ) ;
#108 = ORIENTED_EDGE ( 'NONE', *, *, #101, .F. ) ;
#109 = EDGE_CURVE ( 'NONE', #40, #110, #86, .T. ) ;
#110 = VERTEX_POINT ( 'NONE', #137 ) ;
#111 = CARTESIAN_POINT ( 'NONE',  ( 500.0000000000000000, -250.0000000000000000, -3.000000000000000000 ) ) ;
#112 = LINE ( 'NONE', #47, #184 ) ;
#113 = EDGE_CURVE ( 'NONE', #110, #132, #10, .T. ) ;
#114 = DIRECTION ( 'NONE',  ( 0.0000000000000000000, -1.000000000000000000, -0.0000000000000000000 ) ) ;
#115 = FILL_AREA_STYLE_COLOUR ( '', #48 ) ;
#116 = DIRECTION ( 'NONE',  ( 1.000000000000000000, 0.0000000000000000000, -0.0000000000000000000 ) ) ;
#117 = EDGE_LOOP ( 'NONE', ( #12, #107, #75, #191 ) ) ;
#118 = SURFACE_STYLE_FILL_AREA ( #165 ) ;
#119 = EDGE_CURVE ( 'NONE', #13, #167, #32, .T. ) ;
#120 = LINE ( 'NONE', #142, #68 ) ;
#121 = ORIENTED_EDGE ( 'NONE', *, *, #162, .F. ) ;
#122 = ORIENTED_EDGE ( 'NONE', *, *, #194, .F. ) ;
#123 = DIRECTION ( 'NONE',  ( 0.0000000000000000000, -1.000000000000000000, -0.0000000000000000000 ) ) ;
#124 = MANIFOLD_SOLID_BREP ( 'Importiert1', #201 ) ;
#125 = PLANE ( 'NONE',  #144 ) ;
#126 = FACE_OUTER_BOUND ( 'NONE', #11, .T. ) ;
#127 = FILL_AREA_STYLE_COLOUR ( '', #65 ) ;
#128 = CARTESIAN_POINT ( 'NONE',  ( -500.0000000000000000, -250.0000000000000000, -3.000000000000000000 ) ) ;
#129 = DIRECTION ( 'NONE',  ( 0.0000000000000000000, 0.0000000000000000000, -1.000000000000000000 ) ) ;
#130 = AXIS2_PLACEMENT_3D ( 'NONE', #195, #176, #39 ) ;
#131 = AXIS2_PLACEMENT_3D ( 'NONE', #186, #95, #30 ) ;
#132 = VERTEX_POINT ( 'NONE', #158 ) ;
#133 = EDGE_CURVE ( 'NONE', #110, #13, #72, .T. ) ;
#134 = VECTOR ( 'NONE', #129, 1000.000000000000000 ) ;
#135 = DIRECTION ( 'NONE',  ( 1.000000000000000000, 0.0000000000000000000, -0.0000000000000000000 ) ) ;
#136 = DIRECTION ( 'NONE',  ( 0.0000000000000000000, 0.0000000000000000000, 1.000000000000000000 ) ) ;
#137 = CARTESIAN_POINT ( 'NONE',  ( 500.0000000000000000, 250.0000000000000000, -7.000000000000000000 ) ) ;
#138 = DIRECTION ( 'NONE',  ( 0.0000000000000000000, 0.0000000000000000000, 1.000000000000000000 ) ) ;
#139 = MECHANICAL_DESIGN_GEOMETRIC_PRESENTATION_REPRESENTATION (  '', ( #183 ), #199 ) ;
#140 = VECTOR ( 'NONE', #123, 1000.000000000000000 ) ;
#141 = PLANE ( 'NONE',  #18 ) ;
#142 = CARTESIAN_POINT ( 'NONE',  ( -500.0000000000000000, -250.0000000000000000, -7.000000000000000000 ) ) ;
#143 = DIRECTION ( 'NONE',  ( -0.0000000000000000000, -0.0000000000000000000, 1.000000000000000000 ) ) ;
#144 = AXIS2_PLACEMENT_3D ( 'NONE', #161, #70, #193 ) ;
#145 =( NAMED_UNIT ( * ) SI_UNIT ( $, .STERADIAN. ) SOLID_ANGLE_UNIT ( ) );
#146 = ADVANCED_FACE ( 'NONE', ( #90 ), #52, .F. ) ;
#147 = ORIENTED_EDGE ( 'NONE', *, *, #113, .F. ) ;
#148 = ADVANCED_FACE ( 'NONE', ( #43 ), #125, .F. ) ;
#149 = ADVANCED_FACE ( 'NONE', ( #178 ), #6, .T. ) ;
#150 = PRODUCT_DEFINITION_FORMATION_WITH_SPECIFIED_SOURCE ( 'ANY', '', #28, .NOT_KNOWN. ) ;
#151 = VECTOR ( 'NONE', #143, 1000.000000000000000 ) ;
#152 = ORIENTED_EDGE ( 'NONE', *, *, #109, .F. ) ;
#153 =( LENGTH_UNIT ( ) NAMED_UNIT ( * ) SI_UNIT ( .MILLI., .METRE. ) );
#154 = PRESENTATION_LAYER_ASSIGNMENT (  '', '', ( #38 ) ) ;
#155 = FACE_OUTER_BOUND ( 'NONE', #87, .T. ) ;
#156 = FACE_OUTER_BOUND ( 'NONE', #190, .T. ) ;
#157 = PLANE ( 'NONE',  #131 ) ;
#158 = CARTESIAN_POINT ( 'NONE',  ( 500.0000000000000000, 250.0000000000000000, -3.000000000000000000 ) ) ;
#159 = FILL_AREA_STYLE ('',( #127 ) ) ;
#160 = ORIENTED_EDGE ( 'NONE', *, *, #133, .F. ) ;
#161 = CARTESIAN_POINT ( 'NONE',  ( 500.0000000000000000, -250.0000000000000000, -3.000000000000000000 ) ) ;
#162 = EDGE_CURVE ( 'NONE', #185, #27, #106, .T. ) ;
#163 = DIRECTION ( 'NONE',  ( 1.000000000000000000, 0.0000000000000000000, -0.0000000000000000000 ) ) ;
#164 = PRODUCT_CONTEXT ( 'NONE', #44, 'mechanical' ) ;
#165 = FILL_AREA_STYLE ('',( #115 ) ) ;
#166 = VECTOR ( 'NONE', #33, 1000.000000000000000 ) ;
#167 = VERTEX_POINT ( 'NONE', #97 ) ;
#168 = ORIENTED_EDGE ( 'NONE', *, *, #133, .T. ) ;
#169 =( NAMED_UNIT ( * ) PLANE_ANGLE_UNIT ( ) SI_UNIT ( $, .RADIAN. ) );
#170 = DIRECTION ( 'NONE',  ( -0.0000000000000000000, 0.0000000000000000000, 1.000000000000000000 ) ) ;
#171 = DIRECTION ( 'NONE',  ( -0.0000000000000000000, 1.000000000000000000, 0.0000000000000000000 ) ) ;
#172 = EDGE_CURVE ( 'NONE', #185, #98, #182, .T. ) ;
#173 = ORIENTED_EDGE ( 'NONE', *, *, #113, .T. ) ;
#174 = PRESENTATION_LAYER_ASSIGNMENT (  '', '', ( #183 ) ) ;
#175 = DIRECTION ( 'NONE',  ( 0.0000000000000000000, -1.000000000000000000, 0.0000000000000000000 ) ) ;
#176 = DIRECTION ( 'NONE',  ( 1.000000000000000000, 0.0000000000000000000, 0.0000000000000000000 ) ) ;
#177 = SURFACE_STYLE_USAGE ( .BOTH. , #105 ) ;
#178 = FACE_OUTER_BOUND ( 'NONE', #117, .T. ) ;
#179 = PRODUCT_DEFINITION ( 'UNKNOWN', '', #150, #59 ) ;
#180 =( NAMED_UNIT ( * ) SI_UNIT ( $, .STERADIAN. ) SOLID_ANGLE_UNIT ( ) );
#181 = UNCERTAINTY_MEASURE_WITH_UNIT (LENGTH_MEASURE( 1.000000000000000100E-005 ), #20, 'distance_accuracy_value', 'NONE');
#182 = LINE ( 'NONE', #4, #134 ) ;
#183 = STYLED_ITEM ( 'NONE', ( #21 ), #124 ) ;
#184 = VECTOR ( 'NONE', #136, 1000.000000000000000 ) ;
#185 = VERTEX_POINT ( 'NONE', #85 ) ;
#186 = CARTESIAN_POINT ( 'NONE',  ( -500.0000000000000000, -250.0000000000000000, -3.000000000000000000 ) ) ;
#187 = DIRECTION ( 'NONE',  ( 0.0000000000000000000, 1.000000000000000000, -0.0000000000000000000 ) ) ;
#188 = CARTESIAN_POINT ( 'NONE',  ( -500.0000000000000000, 250.0000000000000000, -7.000000000000000000 ) ) ;
#189 = CARTESIAN_POINT ( 'NONE',  ( -500.0000000000000000, 250.0000000000000000, -3.000000000000000000 ) ) ;
#190 = EDGE_LOOP ( 'NONE', ( #80, #62, #147, #168 ) ) ;
#191 = ORIENTED_EDGE ( 'NONE', *, *, #162, .T. ) ;
#192 = LINE ( 'NONE', #63, #9 ) ;
#193 = DIRECTION ( 'NONE',  ( 0.0000000000000000000, 0.0000000000000000000, 1.000000000000000000 ) ) ;
#194 = EDGE_CURVE ( 'NONE', #167, #185, #26, .T. ) ;
#195 = CARTESIAN_POINT ( 'NONE',  ( -500.0000000000000000, 250.0000000000000000, -3.000000000000000000 ) ) ;
#196 = ADVANCED_FACE ( 'NONE', ( #156 ), #8, .F. ) ;
#197 = CARTESIAN_POINT ( 'NONE',  ( -500.0000000000000000, -250.0000000000000000, -3.000000000000000000 ) ) ;
#198 = ORIENTED_EDGE ( 'NONE', *, *, #83, .F. ) ;
#199 =( GEOMETRIC_REPRESENTATION_CONTEXT ( 3 ) GLOBAL_UNCERTAINTY_ASSIGNED_CONTEXT ( ( #79 ) ) GLOBAL_UNIT_ASSIGNED_CONTEXT ( ( #49, #169, #81 ) ) REPRESENTATION_CONTEXT ( 'NONE', 'WORKASPACE' ) );
#200 = ORIENTED_EDGE ( 'NONE', *, *, #172, .F. ) ;
#201 = CLOSED_SHELL ( 'NONE', ( #99, #146, #196, #148, #42, #149 ) ) ;
#202 = ORIENTED_EDGE ( 'NONE', *, *, #101, .T. ) ;
ENDSEC;
END-ISO-10303-21;
