ISO-10303-21;
HEADER;
FILE_DESCRIPTION (( 'STEP AP214' ),
    '1' );
FILE_NAME ('6520207',
    '2019-02-01T12:48:22',
    ( '' ),
    ('JUGARD+KÜNSTNER GmbH'),
    'SwSTEP 2.0',
    'SolidWorks 2017',
    '' );
FILE_SCHEMA (( 'AUTOMOTIVE_DESIGN' ));
ENDSEC;

DATA;
#1 = MECHANICAL_DESIGN_GEOMETRIC_PRESENTATION_REPRESENTATION (  '', ( #184 ), #166 ) ;
#2 = CARTESIAN_POINT ( 'NONE',  ( 500.0000000000000000, -250.0000000000000000, -2.000000000000000000 ) ) ;
#3 = CARTESIAN_POINT ( 'NONE',  ( 500.0000000000000000, -250.0000000000000000, -2.000000000000000000 ) ) ;
#4 = PRESENTATION_STYLE_ASSIGNMENT (( #198 ) ) ;
#5 = FACE_OUTER_BOUND ( 'NONE', #121, .T. ) ;
#6 = CARTESIAN_POINT ( 'NONE',  ( 500.0000000000000000, 250.0000000000000000, -7.000000000000000000 ) ) ;
#7 = CARTESIAN_POINT ( 'NONE',  ( 500.0000000000000000, -250.0000000000000000, -2.000000000000000000 ) ) ;
#8 = SURFACE_STYLE_FILL_AREA ( #125 ) ;
#9 = ORIENTED_EDGE ( 'NONE', *, *, #110, .T. ) ;
#10 = CARTESIAN_POINT ( 'NONE',  ( 500.0000000000000000, 250.0000000000000000, -2.000000000000000000 ) ) ;
#11 = LINE ( 'NONE', #2, #61 ) ;
#12 = PRODUCT_CONTEXT ( 'NONE', #108, 'mechanical' ) ;
#13 = ORIENTED_EDGE ( 'NONE', *, *, #150, .F. ) ;
#14 = ORIENTED_EDGE ( 'NONE', *, *, #59, .F. ) ;
#15 = VERTEX_POINT ( 'NONE', #48 ) ;
#16 = UNCERTAINTY_MEASURE_WITH_UNIT (LENGTH_MEASURE( 1.000000000000000100E-005 ), #100, 'distance_accuracy_value', 'NONE');
#17 = LINE ( 'NONE', #154, #182 ) ;
#18 = EDGE_CURVE ( 'NONE', #77, #43, #139, .T. ) ;
#19 = EDGE_LOOP ( 'NONE', ( #173, #13, #46, #9 ) ) ;
#20 = FILL_AREA_STYLE_COLOUR ( '', #131 ) ;
#21 = DIRECTION ( 'NONE',  ( 0.0000000000000000000, -1.000000000000000000, 0.0000000000000000000 ) ) ;
#22 = PLANE ( 'NONE',  #181 ) ;
#23 =( NAMED_UNIT ( * ) SI_UNIT ( $, .STERADIAN. ) SOLID_ANGLE_UNIT ( ) );
#24 = VERTEX_POINT ( 'NONE', #6 ) ;
#25 = VERTEX_POINT ( 'NONE', #3 ) ;
#26 = CARTESIAN_POINT ( 'NONE',  ( 500.0000000000000000, 250.0000000000000000, -2.000000000000000000 ) ) ;
#27 = AXIS2_PLACEMENT_3D ( 'NONE', #138, #152, #38 ) ;
#28 = LINE ( 'NONE', #52, #177 ) ;
#29 =( NAMED_UNIT ( * ) SI_UNIT ( $, .STERADIAN. ) SOLID_ANGLE_UNIT ( ) );
#30 = VECTOR ( 'NONE', #37, 1000.000000000000000 ) ;
#31 =( GEOMETRIC_REPRESENTATION_CONTEXT ( 3 ) GLOBAL_UNCERTAINTY_ASSIGNED_CONTEXT ( ( #16 ) ) GLOBAL_UNIT_ASSIGNED_CONTEXT ( ( #100, #122, #23 ) ) REPRESENTATION_CONTEXT ( 'NONE', 'WORKASPACE' ) );
#32 = ORIENTED_EDGE ( 'NONE', *, *, #18, .F. ) ;
#33 = CARTESIAN_POINT ( 'NONE',  ( -500.0000000000000000, 250.0000000000000000, -2.000000000000000000 ) ) ;
#34 = FACE_OUTER_BOUND ( 'NONE', #54, .T. ) ;
#35 = ORIENTED_EDGE ( 'NONE', *, *, #93, .T. ) ;
#36 = DIRECTION ( 'NONE',  ( 0.0000000000000000000, 0.0000000000000000000, 1.000000000000000000 ) ) ;
#37 = DIRECTION ( 'NONE',  ( 0.0000000000000000000, 1.000000000000000000, -0.0000000000000000000 ) ) ;
#38 = DIRECTION ( 'NONE',  ( 0.0000000000000000000, 0.0000000000000000000, -1.000000000000000000 ) ) ;
#39 = AXIS2_PLACEMENT_3D ( 'NONE', #156, #72, #91 ) ;
#40 = CLOSED_SHELL ( 'NONE', ( #75, #130, #94, #118, #199, #155 ) ) ;
#41 = FILL_AREA_STYLE ('',( #60 ) ) ;
#42 = EDGE_LOOP ( 'NONE', ( #50, #140, #90, #149 ) ) ;
#43 = VERTEX_POINT ( 'NONE', #187 ) ;
#44 = SURFACE_STYLE_FILL_AREA ( #41 ) ;
#45 =( GEOMETRIC_REPRESENTATION_CONTEXT ( 3 ) GLOBAL_UNCERTAINTY_ASSIGNED_CONTEXT ( ( #164 ) ) GLOBAL_UNIT_ASSIGNED_CONTEXT ( ( #174, #88, #145 ) ) REPRESENTATION_CONTEXT ( 'NONE', 'WORKASPACE' ) );
#46 = ORIENTED_EDGE ( 'NONE', *, *, #93, .F. ) ;
#47 = ORIENTED_EDGE ( 'NONE', *, *, #128, .F. ) ;
#48 = CARTESIAN_POINT ( 'NONE',  ( -500.0000000000000000, -250.0000000000000000, -2.000000000000000000 ) ) ;
#49 = DIRECTION ( 'NONE',  ( -0.0000000000000000000, 0.0000000000000000000, 1.000000000000000000 ) ) ;
#50 = ORIENTED_EDGE ( 'NONE', *, *, #128, .T. ) ;
#51 = LINE ( 'NONE', #26, #183 ) ;
#52 = CARTESIAN_POINT ( 'NONE',  ( -500.0000000000000000, -250.0000000000000000, -2.000000000000000000 ) ) ;
#53 = CARTESIAN_POINT ( 'NONE',  ( 500.0000000000000000, 250.0000000000000000, -2.000000000000000000 ) ) ;
#54 = EDGE_LOOP ( 'NONE', ( #65, #104, #180, #109 ) ) ;
#55 = PRODUCT_DEFINITION_FORMATION_WITH_SPECIFIED_SOURCE ( 'ANY', '', #160, .NOT_KNOWN. ) ;
#56 = DIRECTION ( 'NONE',  ( 0.0000000000000000000, -0.0000000000000000000, 1.000000000000000000 ) ) ;
#57 = VERTEX_POINT ( 'NONE', #162 ) ;
#58 = CARTESIAN_POINT ( 'NONE',  ( -500.0000000000000000, -250.0000000000000000, -2.000000000000000000 ) ) ;
#59 = EDGE_CURVE ( 'NONE', #43, #15, #95, .T. ) ;
#60 = FILL_AREA_STYLE_COLOUR ( '', #119 ) ;
#61 = VECTOR ( 'NONE', #111, 1000.000000000000000 ) ;
#62 = LINE ( 'NONE', #153, #30 ) ;
#63 = MANIFOLD_SOLID_BREP ( 'Importiert1', #40 ) ;
#64 = VECTOR ( 'NONE', #112, 1000.000000000000000 ) ;
#65 = ORIENTED_EDGE ( 'NONE', *, *, #110, .F. ) ;
#66 = VECTOR ( 'NONE', #83, 1000.000000000000000 ) ;
#67 = EDGE_CURVE ( 'NONE', #77, #57, #71, .T. ) ;
#68 = CARTESIAN_POINT ( 'NONE',  ( -500.0000000000000000, 250.0000000000000000, -7.000000000000000000 ) ) ;
#69 = DIRECTION ( 'NONE',  ( 1.000000000000000000, 0.0000000000000000000, -0.0000000000000000000 ) ) ;
#70 = DIRECTION ( 'NONE',  ( -0.0000000000000000000, 1.000000000000000000, 0.0000000000000000000 ) ) ;
#71 = LINE ( 'NONE', #170, #151 ) ;
#72 = DIRECTION ( 'NONE',  ( 0.0000000000000000000, 0.0000000000000000000, 1.000000000000000000 ) ) ;
#73 =( NAMED_UNIT ( * ) PLANE_ANGLE_UNIT ( ) SI_UNIT ( $, .RADIAN. ) );
#74 = UNCERTAINTY_MEASURE_WITH_UNIT (LENGTH_MEASURE( 1.000000000000000100E-005 ), #144, 'distance_accuracy_value', 'NONE');
#75 = ADVANCED_FACE ( 'NONE', ( #34 ), #85, .F. ) ;
#76 = FACE_OUTER_BOUND ( 'NONE', #42, .T. ) ;
#77 = VERTEX_POINT ( 'NONE', #194 ) ;
#78 = AXIS2_PLACEMENT_3D ( 'NONE', #58, #132, #56 ) ;
#79 = ADVANCED_BREP_SHAPE_REPRESENTATION ( '6520207_CNAJF00', ( #63, #158 ), #45 ) ;
#80 = EDGE_CURVE ( 'NONE', #15, #57, #176, .T. ) ;
#81 = ORIENTED_EDGE ( 'NONE', *, *, #147, .F. ) ;
#82 = DIRECTION ( 'NONE',  ( 0.0000000000000000000, -1.000000000000000000, -0.0000000000000000000 ) ) ;
#83 = DIRECTION ( 'NONE',  ( -1.000000000000000000, -0.0000000000000000000, 0.0000000000000000000 ) ) ;
#84 = DIRECTION ( 'NONE',  ( -1.000000000000000000, 0.0000000000000000000, 0.0000000000000000000 ) ) ;
#85 = PLANE ( 'NONE',  #120 ) ;
#86 = EDGE_CURVE ( 'NONE', #200, #25, #11, .T. ) ;
#87 = PLANE ( 'NONE',  #141 ) ;
#88 =( NAMED_UNIT ( * ) PLANE_ANGLE_UNIT ( ) SI_UNIT ( $, .RADIAN. ) );
#89 = VECTOR ( 'NONE', #165, 1000.000000000000000 ) ;
#90 = ORIENTED_EDGE ( 'NONE', *, *, #59, .T. ) ;
#91 = DIRECTION ( 'NONE',  ( 1.000000000000000000, 0.0000000000000000000, -0.0000000000000000000 ) ) ;
#92 = DIRECTION ( 'NONE',  ( 0.0000000000000000000, 0.0000000000000000000, 1.000000000000000000 ) ) ;
#93 = EDGE_CURVE ( 'NONE', #24, #196, #17, .T. ) ;
#94 = ADVANCED_FACE ( 'NONE', ( #188 ), #87, .F. ) ;
#95 = LINE ( 'NONE', #33, #89 ) ;
#96 = PRODUCT_DEFINITION ( 'UNKNOWN', '', #55, #146 ) ;
#97 = MECHANICAL_DESIGN_GEOMETRIC_PRESENTATION_REPRESENTATION (  '', ( #135 ), #31 ) ;
#98 = ORIENTED_EDGE ( 'NONE', *, *, #115, .T. ) ;
#99 = EDGE_LOOP ( 'NONE', ( #101, #14, #32, #161 ) ) ;
#100 =( LENGTH_UNIT ( ) NAMED_UNIT ( * ) SI_UNIT ( .MILLI., .METRE. ) );
#101 = ORIENTED_EDGE ( 'NONE', *, *, #80, .F. ) ;
#102 = SURFACE_STYLE_USAGE ( .BOTH. , #168 ) ;
#103 = DIRECTION ( 'NONE',  ( 0.0000000000000000000, 0.0000000000000000000, 1.000000000000000000 ) ) ;
#104 = ORIENTED_EDGE ( 'NONE', *, *, #105, .F. ) ;
#105 = EDGE_CURVE ( 'NONE', #200, #24, #159, .T. ) ;
#106 = APPLICATION_PROTOCOL_DEFINITION ( 'draft international standard', 'automotive_design', 1998, #108 ) ;
#107 = VECTOR ( 'NONE', #190, 1000.000000000000000 ) ;
#108 = APPLICATION_CONTEXT ( 'automotive_design' ) ;
#109 = ORIENTED_EDGE ( 'NONE', *, *, #67, .F. ) ;
#110 = EDGE_CURVE ( 'NONE', #24, #77, #172, .T. ) ;
#111 = DIRECTION ( 'NONE',  ( 0.0000000000000000000, 0.0000000000000000000, 1.000000000000000000 ) ) ;
#112 = DIRECTION ( 'NONE',  ( 0.0000000000000000000, 0.0000000000000000000, -1.000000000000000000 ) ) ;
#113 = CARTESIAN_POINT ( 'NONE',  ( 500.0000000000000000, -250.0000000000000000, -7.000000000000000000 ) ) ;
#114 = DIRECTION ( 'NONE',  ( 1.000000000000000000, 0.0000000000000000000, -0.0000000000000000000 ) ) ;
#115 = EDGE_CURVE ( 'NONE', #57, #200, #136, .T. ) ;
#116 = CARTESIAN_POINT ( 'NONE',  ( -500.0000000000000000, 250.0000000000000000, -2.000000000000000000 ) ) ;
#117 = APPLICATION_PROTOCOL_DEFINITION ( 'draft international standard', 'automotive_design', 1998, #143 ) ;
#118 = ADVANCED_FACE ( 'NONE', ( #167 ), #22, .F. ) ;
#119 = COLOUR_RGB ( '',0.7529411764705882200, 0.7529411764705882200, 0.7529411764705882200 ) ;
#120 = AXIS2_PLACEMENT_3D ( 'NONE', #142, #36, #114 ) ;
#121 = EDGE_LOOP ( 'NONE', ( #134, #81, #148, #98 ) ) ;
#122 =( NAMED_UNIT ( * ) PLANE_ANGLE_UNIT ( ) SI_UNIT ( $, .RADIAN. ) );
#123 = DIRECTION ( 'NONE',  ( 0.0000000000000000000, -0.0000000000000000000, -1.000000000000000000 ) ) ;
#124 = PLANE ( 'NONE',  #27 ) ;
#125 = FILL_AREA_STYLE ('',( #20 ) ) ;
#126 = VECTOR ( 'NONE', #193, 1000.000000000000000 ) ;
#127 = DIRECTION ( 'NONE',  ( -1.000000000000000000, -0.0000000000000000000, -0.0000000000000000000 ) ) ;
#128 = EDGE_CURVE ( 'NONE', #25, #196, #62, .T. ) ;
#129 = PLANE ( 'NONE',  #78 ) ;
#130 = ADVANCED_FACE ( 'NONE', ( #185 ), #124, .F. ) ;
#131 = COLOUR_RGB ( '',0.3411764705882353000, 0.3647058823529411600, 0.3803921568627450800 ) ;
#132 = DIRECTION ( 'NONE',  ( 0.0000000000000000000, 1.000000000000000000, 0.0000000000000000000 ) ) ;
#133 = CARTESIAN_POINT ( 'NONE',  ( 500.0000000000000000, -250.0000000000000000, -7.000000000000000000 ) ) ;
#134 = ORIENTED_EDGE ( 'NONE', *, *, #86, .T. ) ;
#135 = STYLED_ITEM ( 'NONE', ( #157 ), #63 ) ;
#136 = LINE ( 'NONE', #171, #107 ) ;
#137 = PRODUCT_DEFINITION_SHAPE ( 'NONE', 'NONE',  #96 ) ;
#138 = CARTESIAN_POINT ( 'NONE',  ( -500.0000000000000000, 250.0000000000000000, -2.000000000000000000 ) ) ;
#139 = LINE ( 'NONE', #116, #126 ) ;
#140 = ORIENTED_EDGE ( 'NONE', *, *, #150, .T. ) ;
#141 = AXIS2_PLACEMENT_3D ( 'NONE', #53, #21, #123 ) ;
#142 = CARTESIAN_POINT ( 'NONE',  ( -500.0000000000000000, -250.0000000000000000, -7.000000000000000000 ) ) ;
#143 = APPLICATION_CONTEXT ( 'automotive_design' ) ;
#144 =( LENGTH_UNIT ( ) NAMED_UNIT ( * ) SI_UNIT ( .MILLI., .METRE. ) );
#145 =( NAMED_UNIT ( * ) SI_UNIT ( $, .STERADIAN. ) SOLID_ANGLE_UNIT ( ) );
#146 = PRODUCT_DEFINITION_CONTEXT ( 'detailed design', #143, 'design' ) ;
#147 = EDGE_CURVE ( 'NONE', #15, #25, #28, .T. ) ;
#148 = ORIENTED_EDGE ( 'NONE', *, *, #80, .T. ) ;
#149 = ORIENTED_EDGE ( 'NONE', *, *, #147, .T. ) ;
#150 = EDGE_CURVE ( 'NONE', #196, #43, #51, .T. ) ;
#151 = VECTOR ( 'NONE', #82, 1000.000000000000000 ) ;
#152 = DIRECTION ( 'NONE',  ( 1.000000000000000000, 0.0000000000000000000, 0.0000000000000000000 ) ) ;
#153 = CARTESIAN_POINT ( 'NONE',  ( 500.0000000000000000, -250.0000000000000000, -2.000000000000000000 ) ) ;
#154 = CARTESIAN_POINT ( 'NONE',  ( 500.0000000000000000, 250.0000000000000000, -2.000000000000000000 ) ) ;
#155 = ADVANCED_FACE ( 'NONE', ( #76 ), #175, .T. ) ;
#156 = CARTESIAN_POINT ( 'NONE',  ( -500.0000000000000000, -250.0000000000000000, -2.000000000000000000 ) ) ;
#157 = PRESENTATION_STYLE_ASSIGNMENT (( #102 ) ) ;
#158 = AXIS2_PLACEMENT_3D ( 'NONE', #178, #92, #195 ) ;
#159 = LINE ( 'NONE', #113, #201 ) ;
#160 = PRODUCT ( '6520207_CNAJF00', '6520207_CNAJF00', '', ( #12 ) ) ;
#161 = ORIENTED_EDGE ( 'NONE', *, *, #67, .T. ) ;
#162 = CARTESIAN_POINT ( 'NONE',  ( -500.0000000000000000, -250.0000000000000000, -7.000000000000000000 ) ) ;
#163 = PRESENTATION_LAYER_ASSIGNMENT (  '', '', ( #135 ) ) ;
#164 = UNCERTAINTY_MEASURE_WITH_UNIT (LENGTH_MEASURE( 1.000000000000000100E-005 ), #174, 'distance_accuracy_value', 'NONE');
#165 = DIRECTION ( 'NONE',  ( 0.0000000000000000000, -1.000000000000000000, -0.0000000000000000000 ) ) ;
#166 =( GEOMETRIC_REPRESENTATION_CONTEXT ( 3 ) GLOBAL_UNCERTAINTY_ASSIGNED_CONTEXT ( ( #74 ) ) GLOBAL_UNIT_ASSIGNED_CONTEXT ( ( #144, #73, #29 ) ) REPRESENTATION_CONTEXT ( 'NONE', 'WORKASPACE' ) );
#167 = FACE_OUTER_BOUND ( 'NONE', #179, .T. ) ;
#168 = SURFACE_SIDE_STYLE ('',( #8 ) ) ;
#169 = PRODUCT_RELATED_PRODUCT_CATEGORY ( 'part', '', ( #160 ) ) ;
#170 = CARTESIAN_POINT ( 'NONE',  ( -500.0000000000000000, -250.0000000000000000, -7.000000000000000000 ) ) ;
#171 = CARTESIAN_POINT ( 'NONE',  ( -500.0000000000000000, -250.0000000000000000, -7.000000000000000000 ) ) ;
#172 = LINE ( 'NONE', #68, #66 ) ;
#173 = ORIENTED_EDGE ( 'NONE', *, *, #18, .T. ) ;
#174 =( LENGTH_UNIT ( ) NAMED_UNIT ( * ) SI_UNIT ( .MILLI., .METRE. ) );
#175 = PLANE ( 'NONE',  #39 ) ;
#176 = LINE ( 'NONE', #189, #64 ) ;
#177 = VECTOR ( 'NONE', #69, 1000.000000000000000 ) ;
#178 = CARTESIAN_POINT ( 'NONE',  ( 0.0000000000000000000, 0.0000000000000000000, 0.0000000000000000000 ) ) ;
#179 = EDGE_LOOP ( 'NONE', ( #35, #47, #186, #192 ) ) ;
#180 = ORIENTED_EDGE ( 'NONE', *, *, #115, .F. ) ;
#181 = AXIS2_PLACEMENT_3D ( 'NONE', #7, #84, #103 ) ;
#182 = VECTOR ( 'NONE', #49, 1000.000000000000000 ) ;
#183 = VECTOR ( 'NONE', #127, 1000.000000000000000 ) ;
#184 = STYLED_ITEM ( 'NONE', ( #4 ), #79 ) ;
#185 = FACE_OUTER_BOUND ( 'NONE', #99, .T. ) ;
#186 = ORIENTED_EDGE ( 'NONE', *, *, #86, .F. ) ;
#187 = CARTESIAN_POINT ( 'NONE',  ( -500.0000000000000000, 250.0000000000000000, -2.000000000000000000 ) ) ;
#188 = FACE_OUTER_BOUND ( 'NONE', #19, .T. ) ;
#189 = CARTESIAN_POINT ( 'NONE',  ( -500.0000000000000000, -250.0000000000000000, -2.000000000000000000 ) ) ;
#190 = DIRECTION ( 'NONE',  ( 1.000000000000000000, 0.0000000000000000000, -0.0000000000000000000 ) ) ;
#191 = SHAPE_DEFINITION_REPRESENTATION ( #137, #79 ) ;
#192 = ORIENTED_EDGE ( 'NONE', *, *, #105, .T. ) ;
#193 = DIRECTION ( 'NONE',  ( -0.0000000000000000000, -0.0000000000000000000, 1.000000000000000000 ) ) ;
#194 = CARTESIAN_POINT ( 'NONE',  ( -500.0000000000000000, 250.0000000000000000, -7.000000000000000000 ) ) ;
#195 = DIRECTION ( 'NONE',  ( 1.000000000000000000, 0.0000000000000000000, 0.0000000000000000000 ) ) ;
#196 = VERTEX_POINT ( 'NONE', #10 ) ;
#197 = SURFACE_SIDE_STYLE ('',( #44 ) ) ;
#198 = SURFACE_STYLE_USAGE ( .BOTH. , #197 ) ;
#199 = ADVANCED_FACE ( 'NONE', ( #5 ), #129, .F. ) ;
#200 = VERTEX_POINT ( 'NONE', #133 ) ;
#201 = VECTOR ( 'NONE', #70, 1000.000000000000000 ) ;
#202 = PRESENTATION_LAYER_ASSIGNMENT (  '', '', ( #184 ) ) ;
ENDSEC;
END-ISO-10303-21;
