ISO-10303-21;
HEADER;
FILE_DESCRIPTION (( 'STEP AP214' ),
    '1' );
FILE_NAME ('6520212',
    '2019-02-01T12:48:25',
    ( '' ),
    ('JUGARD+KÜNSTNER GmbH'),
    'SwSTEP 2.0',
    'SolidWorks 2017',
    '' );
FILE_SCHEMA (( 'AUTOMOTIVE_DESIGN' ));
ENDSEC;

DATA;
#1 =( NAMED_UNIT ( * ) SI_UNIT ( $, .STERADIAN. ) SOLID_ANGLE_UNIT ( ) );
#2 = ORIENTED_EDGE ( 'NONE', *, *, #199, .F. ) ;
#3 = CARTESIAN_POINT ( 'NONE',  ( 500.0000000000000000, 250.0000000000000000, 1.000000000000000000 ) ) ;
#4 = LINE ( 'NONE', #104, #115 ) ;
#5 = ORIENTED_EDGE ( 'NONE', *, *, #27, .T. ) ;
#6 = CARTESIAN_POINT ( 'NONE',  ( -500.0000000000000000, 250.0000000000000000, -7.000000000000000000 ) ) ;
#7 = ORIENTED_EDGE ( 'NONE', *, *, #99, .T. ) ;
#8 = DIRECTION ( 'NONE',  ( 0.0000000000000000000, -0.0000000000000000000, 1.000000000000000000 ) ) ;
#9 = DIRECTION ( 'NONE',  ( 0.0000000000000000000, 0.0000000000000000000, -1.000000000000000000 ) ) ;
#10 = UNCERTAINTY_MEASURE_WITH_UNIT (LENGTH_MEASURE( 1.000000000000000100E-005 ), #13, 'distance_accuracy_value', 'NONE');
#11 = CARTESIAN_POINT ( 'NONE',  ( -500.0000000000000000, -250.0000000000000000, -7.000000000000000000 ) ) ;
#12 = CARTESIAN_POINT ( 'NONE',  ( -500.0000000000000000, -250.0000000000000000, -7.000000000000000000 ) ) ;
#13 =( LENGTH_UNIT ( ) NAMED_UNIT ( * ) SI_UNIT ( .MILLI., .METRE. ) );
#14 =( GEOMETRIC_REPRESENTATION_CONTEXT ( 3 ) GLOBAL_UNCERTAINTY_ASSIGNED_CONTEXT ( ( #10 ) ) GLOBAL_UNIT_ASSIGNED_CONTEXT ( ( #13, #198, #171 ) ) REPRESENTATION_CONTEXT ( 'NONE', 'WORKASPACE' ) );
#15 = APPLICATION_PROTOCOL_DEFINITION ( 'draft international standard', 'automotive_design', 1998, #202 ) ;
#16 = SHAPE_DEFINITION_REPRESENTATION ( #191, #138 ) ;
#17 = ORIENTED_EDGE ( 'NONE', *, *, #173, .T. ) ;
#18 = CARTESIAN_POINT ( 'NONE',  ( 500.0000000000000000, 250.0000000000000000, 1.000000000000000000 ) ) ;
#19 = LINE ( 'NONE', #158, #109 ) ;
#20 = AXIS2_PLACEMENT_3D ( 'NONE', #12, #29, #157 ) ;
#21 = ADVANCED_FACE ( 'NONE', ( #116 ), #164, .F. ) ;
#22 = LINE ( 'NONE', #93, #181 ) ;
#23 = LINE ( 'NONE', #77, #30 ) ;
#24 = CARTESIAN_POINT ( 'NONE',  ( 500.0000000000000000, 250.0000000000000000, 1.000000000000000000 ) ) ;
#25 = VERTEX_POINT ( 'NONE', #114 ) ;
#26 = DIRECTION ( 'NONE',  ( 0.0000000000000000000, 0.0000000000000000000, 1.000000000000000000 ) ) ;
#27 = EDGE_CURVE ( 'NONE', #25, #166, #196, .T. ) ;
#28 = DIRECTION ( 'NONE',  ( -1.000000000000000000, -0.0000000000000000000, 0.0000000000000000000 ) ) ;
#29 = DIRECTION ( 'NONE',  ( 0.0000000000000000000, 0.0000000000000000000, 1.000000000000000000 ) ) ;
#30 = VECTOR ( 'NONE', #127, 1000.000000000000000 ) ;
#31 = EDGE_LOOP ( 'NONE', ( #169, #139, #170, #5 ) ) ;
#32 = PRESENTATION_LAYER_ASSIGNMENT (  '', '', ( #137 ) ) ;
#33 =( LENGTH_UNIT ( ) NAMED_UNIT ( * ) SI_UNIT ( .MILLI., .METRE. ) );
#34 = ORIENTED_EDGE ( 'NONE', *, *, #99, .F. ) ;
#35 = EDGE_CURVE ( 'NONE', #74, #83, #41, .T. ) ;
#36 = CARTESIAN_POINT ( 'NONE',  ( -500.0000000000000000, -250.0000000000000000, -7.000000000000000000 ) ) ;
#37 = PRODUCT_DEFINITION_CONTEXT ( 'detailed design', #202, 'design' ) ;
#38 = UNCERTAINTY_MEASURE_WITH_UNIT (LENGTH_MEASURE( 1.000000000000000100E-005 ), #108, 'distance_accuracy_value', 'NONE');
#39 = CARTESIAN_POINT ( 'NONE',  ( 500.0000000000000000, -250.0000000000000000, -7.000000000000000000 ) ) ;
#40 = LINE ( 'NONE', #44, #156 ) ;
#41 = LINE ( 'NONE', #18, #53 ) ;
#42 = FILL_AREA_STYLE_COLOUR ( '', #88 ) ;
#43 = EDGE_LOOP ( 'NONE', ( #140, #62, #132, #97 ) ) ;
#44 = CARTESIAN_POINT ( 'NONE',  ( 500.0000000000000000, -250.0000000000000000, 1.000000000000000000 ) ) ;
#45 = DIRECTION ( 'NONE',  ( 0.0000000000000000000, -1.000000000000000000, -0.0000000000000000000 ) ) ;
#46 = AXIS2_PLACEMENT_3D ( 'NONE', #3, #65, #151 ) ;
#47 = SURFACE_STYLE_FILL_AREA ( #159 ) ;
#48 = ORIENTED_EDGE ( 'NONE', *, *, #85, .F. ) ;
#49 = ORIENTED_EDGE ( 'NONE', *, *, #50, .T. ) ;
#50 = EDGE_CURVE ( 'NONE', #166, #74, #58, .T. ) ;
#51 = VERTEX_POINT ( 'NONE', #6 ) ;
#52 = ADVANCED_FACE ( 'NONE', ( #130 ), #86, .F. ) ;
#53 = VECTOR ( 'NONE', #69, 1000.000000000000000 ) ;
#54 = ORIENTED_EDGE ( 'NONE', *, *, #160, .F. ) ;
#55 = CARTESIAN_POINT ( 'NONE',  ( 500.0000000000000000, -250.0000000000000000, 1.000000000000000000 ) ) ;
#56 = CARTESIAN_POINT ( 'NONE',  ( 500.0000000000000000, -250.0000000000000000, 1.000000000000000000 ) ) ;
#57 = MECHANICAL_DESIGN_GEOMETRIC_PRESENTATION_REPRESENTATION (  '', ( #150 ), #14 ) ;
#58 = LINE ( 'NONE', #39, #66 ) ;
#59 = VERTEX_POINT ( 'NONE', #55 ) ;
#60 = PRESENTATION_STYLE_ASSIGNMENT (( #95 ) ) ;
#61 = CARTESIAN_POINT ( 'NONE',  ( 500.0000000000000000, -250.0000000000000000, -7.000000000000000000 ) ) ;
#62 = ORIENTED_EDGE ( 'NONE', *, *, #173, .F. ) ;
#63 =( NAMED_UNIT ( * ) PLANE_ANGLE_UNIT ( ) SI_UNIT ( $, .RADIAN. ) );
#64 = ADVANCED_FACE ( 'NONE', ( #146 ), #71, .F. ) ;
#65 = DIRECTION ( 'NONE',  ( 0.0000000000000000000, -1.000000000000000000, 0.0000000000000000000 ) ) ;
#66 = VECTOR ( 'NONE', #70, 1000.000000000000000 ) ;
#67 = ADVANCED_FACE ( 'NONE', ( #84 ), #168, .F. ) ;
#68 = VECTOR ( 'NONE', #172, 1000.000000000000000 ) ;
#69 = DIRECTION ( 'NONE',  ( -0.0000000000000000000, 0.0000000000000000000, 1.000000000000000000 ) ) ;
#70 = DIRECTION ( 'NONE',  ( -0.0000000000000000000, 1.000000000000000000, 0.0000000000000000000 ) ) ;
#71 = PLANE ( 'NONE',  #141 ) ;
#72 = CARTESIAN_POINT ( 'NONE',  ( -500.0000000000000000, 250.0000000000000000, 1.000000000000000000 ) ) ;
#73 = LINE ( 'NONE', #90, #119 ) ;
#74 = VERTEX_POINT ( 'NONE', #121 ) ;
#75 = DIRECTION ( 'NONE',  ( 0.0000000000000000000, 1.000000000000000000, 0.0000000000000000000 ) ) ;
#76 = DIRECTION ( 'NONE',  ( -1.000000000000000000, 0.0000000000000000000, 0.0000000000000000000 ) ) ;
#77 = CARTESIAN_POINT ( 'NONE',  ( 500.0000000000000000, -250.0000000000000000, 1.000000000000000000 ) ) ;
#78 = PLANE ( 'NONE',  #124 ) ;
#79 = AXIS2_PLACEMENT_3D ( 'NONE', #72, #87, #195 ) ;
#80 = CARTESIAN_POINT ( 'NONE',  ( -500.0000000000000000, -250.0000000000000000, 1.000000000000000000 ) ) ;
#81 =( NAMED_UNIT ( * ) PLANE_ANGLE_UNIT ( ) SI_UNIT ( $, .RADIAN. ) );
#82 = FILL_AREA_STYLE ('',( #129 ) ) ;
#83 = VERTEX_POINT ( 'NONE', #24 ) ;
#84 = FACE_OUTER_BOUND ( 'NONE', #89, .T. ) ;
#85 = EDGE_CURVE ( 'NONE', #167, #25, #101, .T. ) ;
#86 = PLANE ( 'NONE',  #187 ) ;
#87 = DIRECTION ( 'NONE',  ( 1.000000000000000000, 0.0000000000000000000, 0.0000000000000000000 ) ) ;
#88 = COLOUR_RGB ( '',0.3411764705882353000, 0.3647058823529411600, 0.3803921568627450800 ) ;
#89 = EDGE_LOOP ( 'NONE', ( #48, #34, #54, #91 ) ) ;
#90 = CARTESIAN_POINT ( 'NONE',  ( -500.0000000000000000, -250.0000000000000000, 1.000000000000000000 ) ) ;
#91 = ORIENTED_EDGE ( 'NONE', *, *, #199, .T. ) ;
#92 = CARTESIAN_POINT ( 'NONE',  ( -500.0000000000000000, -250.0000000000000000, 1.000000000000000000 ) ) ;
#93 = CARTESIAN_POINT ( 'NONE',  ( -500.0000000000000000, 250.0000000000000000, -7.000000000000000000 ) ) ;
#94 = MECHANICAL_DESIGN_GEOMETRIC_PRESENTATION_REPRESENTATION (  '', ( #137 ), #122 ) ;
#95 = SURFACE_STYLE_USAGE ( .BOTH. , #186 ) ;
#96 = COLOUR_RGB ( '',0.7529411764705882200, 0.7529411764705882200, 0.7529411764705882200 ) ;
#97 = ORIENTED_EDGE ( 'NONE', *, *, #112, .T. ) ;
#98 = SURFACE_SIDE_STYLE ('',( #154 ) ) ;
#99 = EDGE_CURVE ( 'NONE', #153, #167, #4, .T. ) ;
#100 = ORIENTED_EDGE ( 'NONE', *, *, #112, .F. ) ;
#101 = LINE ( 'NONE', #120, #161 ) ;
#102 = EDGE_CURVE ( 'NONE', #167, #59, #73, .T. ) ;
#103 = AXIS2_PLACEMENT_3D ( 'NONE', #148, #134, #176 ) ;
#104 = CARTESIAN_POINT ( 'NONE',  ( -500.0000000000000000, 250.0000000000000000, 1.000000000000000000 ) ) ;
#105 = DIRECTION ( 'NONE',  ( -0.0000000000000000000, -0.0000000000000000000, 1.000000000000000000 ) ) ;
#106 = ORIENTED_EDGE ( 'NONE', *, *, #131, .F. ) ;
#107 = CARTESIAN_POINT ( 'NONE',  ( 500.0000000000000000, 250.0000000000000000, 1.000000000000000000 ) ) ;
#108 =( LENGTH_UNIT ( ) NAMED_UNIT ( * ) SI_UNIT ( .MILLI., .METRE. ) );
#109 = VECTOR ( 'NONE', #105, 1000.000000000000000 ) ;
#110 = ORIENTED_EDGE ( 'NONE', *, *, #102, .T. ) ;
#111 = APPLICATION_PROTOCOL_DEFINITION ( 'draft international standard', 'automotive_design', 1998, #188 ) ;
#112 = EDGE_CURVE ( 'NONE', #74, #51, #22, .T. ) ;
#113 = LINE ( 'NONE', #11, #68 ) ;
#114 = CARTESIAN_POINT ( 'NONE',  ( -500.0000000000000000, -250.0000000000000000, -7.000000000000000000 ) ) ;
#115 = VECTOR ( 'NONE', #45, 1000.000000000000000 ) ;
#116 = FACE_OUTER_BOUND ( 'NONE', #43, .T. ) ;
#117 = ADVANCED_FACE ( 'NONE', ( #192 ), #78, .T. ) ;
#118 = PRESENTATION_LAYER_ASSIGNMENT (  '', '', ( #150 ) ) ;
#119 = VECTOR ( 'NONE', #183, 1000.000000000000000 ) ;
#120 = CARTESIAN_POINT ( 'NONE',  ( -500.0000000000000000, -250.0000000000000000, 1.000000000000000000 ) ) ;
#121 = CARTESIAN_POINT ( 'NONE',  ( 500.0000000000000000, 250.0000000000000000, -7.000000000000000000 ) ) ;
#122 =( GEOMETRIC_REPRESENTATION_CONTEXT ( 3 ) GLOBAL_UNCERTAINTY_ASSIGNED_CONTEXT ( ( #126 ) ) GLOBAL_UNIT_ASSIGNED_CONTEXT ( ( #33, #81, #1 ) ) REPRESENTATION_CONTEXT ( 'NONE', 'WORKASPACE' ) );
#123 = DIRECTION ( 'NONE',  ( 0.0000000000000000000, 0.0000000000000000000, 1.000000000000000000 ) ) ;
#124 = AXIS2_PLACEMENT_3D ( 'NONE', #80, #26, #184 ) ;
#125 = ORIENTED_EDGE ( 'NONE', *, *, #50, .F. ) ;
#126 = UNCERTAINTY_MEASURE_WITH_UNIT (LENGTH_MEASURE( 1.000000000000000100E-005 ), #33, 'distance_accuracy_value', 'NONE');
#127 = DIRECTION ( 'NONE',  ( 0.0000000000000000000, 1.000000000000000000, -0.0000000000000000000 ) ) ;
#128 = PRODUCT_DEFINITION ( 'UNKNOWN', '', #162, #37 ) ;
#129 = FILL_AREA_STYLE_COLOUR ( '', #96 ) ;
#130 = FACE_OUTER_BOUND ( 'NONE', #136, .T. ) ;
#131 = EDGE_CURVE ( 'NONE', #59, #83, #23, .T. ) ;
#132 = ORIENTED_EDGE ( 'NONE', *, *, #35, .F. ) ;
#133 = EDGE_LOOP ( 'NONE', ( #189, #17, #7, #110 ) ) ;
#134 = DIRECTION ( 'NONE',  ( 0.0000000000000000000, 0.0000000000000000000, 1.000000000000000000 ) ) ;
#135 = LINE ( 'NONE', #107, #200 ) ;
#136 = EDGE_LOOP ( 'NONE', ( #177, #106, #142, #49 ) ) ;
#137 = STYLED_ITEM ( 'NONE', ( #185 ), #138 ) ;
#138 = ADVANCED_BREP_SHAPE_REPRESENTATION ( '6520212_CNAJF00', ( #193, #103 ), #197 ) ;
#139 = ORIENTED_EDGE ( 'NONE', *, *, #102, .F. ) ;
#140 = ORIENTED_EDGE ( 'NONE', *, *, #160, .T. ) ;
#141 = AXIS2_PLACEMENT_3D ( 'NONE', #194, #75, #8 ) ;
#142 = ORIENTED_EDGE ( 'NONE', *, *, #152, .F. ) ;
#143 = PLANE ( 'NONE',  #20 ) ;
#144 = CARTESIAN_POINT ( 'NONE',  ( -500.0000000000000000, 250.0000000000000000, 1.000000000000000000 ) ) ;
#145 = PRODUCT_RELATED_PRODUCT_CATEGORY ( 'part', '', ( #180 ) ) ;
#146 = FACE_OUTER_BOUND ( 'NONE', #31, .T. ) ;
#147 = ORIENTED_EDGE ( 'NONE', *, *, #27, .F. ) ;
#148 = CARTESIAN_POINT ( 'NONE',  ( 0.0000000000000000000, 0.0000000000000000000, 0.0000000000000000000 ) ) ;
#149 = PRODUCT_CONTEXT ( 'NONE', #188, 'mechanical' ) ;
#150 = STYLED_ITEM ( 'NONE', ( #60 ), #193 ) ;
#151 = DIRECTION ( 'NONE',  ( 0.0000000000000000000, -0.0000000000000000000, -1.000000000000000000 ) ) ;
#152 = EDGE_CURVE ( 'NONE', #166, #59, #40, .T. ) ;
#153 = VERTEX_POINT ( 'NONE', #144 ) ;
#154 = SURFACE_STYLE_FILL_AREA ( #82 ) ;
#155 = DIRECTION ( 'NONE',  ( 0.0000000000000000000, 0.0000000000000000000, 1.000000000000000000 ) ) ;
#156 = VECTOR ( 'NONE', #123, 1000.000000000000000 ) ;
#157 = DIRECTION ( 'NONE',  ( 1.000000000000000000, 0.0000000000000000000, -0.0000000000000000000 ) ) ;
#158 = CARTESIAN_POINT ( 'NONE',  ( -500.0000000000000000, 250.0000000000000000, 1.000000000000000000 ) ) ;
#159 = FILL_AREA_STYLE ('',( #42 ) ) ;
#160 = EDGE_CURVE ( 'NONE', #51, #153, #19, .T. ) ;
#161 = VECTOR ( 'NONE', #9, 1000.000000000000000 ) ;
#162 = PRODUCT_DEFINITION_FORMATION_WITH_SPECIFIED_SOURCE ( 'ANY', '', #180, .NOT_KNOWN. ) ;
#163 = VECTOR ( 'NONE', #178, 1000.000000000000000 ) ;
#164 = PLANE ( 'NONE',  #46 ) ;
#165 = FACE_OUTER_BOUND ( 'NONE', #175, .T. ) ;
#166 = VERTEX_POINT ( 'NONE', #61 ) ;
#167 = VERTEX_POINT ( 'NONE', #92 ) ;
#168 = PLANE ( 'NONE',  #79 ) ;
#169 = ORIENTED_EDGE ( 'NONE', *, *, #152, .T. ) ;
#170 = ORIENTED_EDGE ( 'NONE', *, *, #85, .T. ) ;
#171 =( NAMED_UNIT ( * ) SI_UNIT ( $, .STERADIAN. ) SOLID_ANGLE_UNIT ( ) );
#172 = DIRECTION ( 'NONE',  ( 0.0000000000000000000, -1.000000000000000000, -0.0000000000000000000 ) ) ;
#173 = EDGE_CURVE ( 'NONE', #83, #153, #135, .T. ) ;
#174 =( NAMED_UNIT ( * ) SI_UNIT ( $, .STERADIAN. ) SOLID_ANGLE_UNIT ( ) );
#175 = EDGE_LOOP ( 'NONE', ( #100, #125, #147, #2 ) ) ;
#176 = DIRECTION ( 'NONE',  ( 1.000000000000000000, 0.0000000000000000000, 0.0000000000000000000 ) ) ;
#177 = ORIENTED_EDGE ( 'NONE', *, *, #35, .T. ) ;
#178 = DIRECTION ( 'NONE',  ( 1.000000000000000000, 0.0000000000000000000, -0.0000000000000000000 ) ) ;
#179 = CLOSED_SHELL ( 'NONE', ( #190, #67, #21, #52, #64, #117 ) ) ;
#180 = PRODUCT ( '6520212_CNAJF00', '6520212_CNAJF00', '', ( #149 ) ) ;
#181 = VECTOR ( 'NONE', #28, 1000.000000000000000 ) ;
#182 = DIRECTION ( 'NONE',  ( -1.000000000000000000, -0.0000000000000000000, -0.0000000000000000000 ) ) ;
#183 = DIRECTION ( 'NONE',  ( 1.000000000000000000, 0.0000000000000000000, -0.0000000000000000000 ) ) ;
#184 = DIRECTION ( 'NONE',  ( 1.000000000000000000, 0.0000000000000000000, -0.0000000000000000000 ) ) ;
#185 = PRESENTATION_STYLE_ASSIGNMENT (( #201 ) ) ;
#186 = SURFACE_SIDE_STYLE ('',( #47 ) ) ;
#187 = AXIS2_PLACEMENT_3D ( 'NONE', #56, #76, #155 ) ;
#188 = APPLICATION_CONTEXT ( 'automotive_design' ) ;
#189 = ORIENTED_EDGE ( 'NONE', *, *, #131, .T. ) ;
#190 = ADVANCED_FACE ( 'NONE', ( #165 ), #143, .F. ) ;
#191 = PRODUCT_DEFINITION_SHAPE ( 'NONE', 'NONE',  #128 ) ;
#192 = FACE_OUTER_BOUND ( 'NONE', #133, .T. ) ;
#193 = MANIFOLD_SOLID_BREP ( 'Importiert1', #179 ) ;
#194 = CARTESIAN_POINT ( 'NONE',  ( -500.0000000000000000, -250.0000000000000000, 1.000000000000000000 ) ) ;
#195 = DIRECTION ( 'NONE',  ( 0.0000000000000000000, 0.0000000000000000000, -1.000000000000000000 ) ) ;
#196 = LINE ( 'NONE', #36, #163 ) ;
#197 =( GEOMETRIC_REPRESENTATION_CONTEXT ( 3 ) GLOBAL_UNCERTAINTY_ASSIGNED_CONTEXT ( ( #38 ) ) GLOBAL_UNIT_ASSIGNED_CONTEXT ( ( #108, #63, #174 ) ) REPRESENTATION_CONTEXT ( 'NONE', 'WORKASPACE' ) );
#198 =( NAMED_UNIT ( * ) PLANE_ANGLE_UNIT ( ) SI_UNIT ( $, .RADIAN. ) );
#199 = EDGE_CURVE ( 'NONE', #51, #25, #113, .T. ) ;
#200 = VECTOR ( 'NONE', #182, 1000.000000000000000 ) ;
#201 = SURFACE_STYLE_USAGE ( .BOTH. , #98 ) ;
#202 = APPLICATION_CONTEXT ( 'automotive_design' ) ;
ENDSEC;
END-ISO-10303-21;
