ISO-10303-21;
HEADER;
FILE_DESCRIPTION (( 'STEP AP214' ),
    '1' );
FILE_NAME ('6520214',
    '2019-02-01T12:48:29',
    ( '' ),
    ('JUGARD+KÜNSTNER GmbH'),
    'SwSTEP 2.0',
    'SolidWorks 2017',
    '' );
FILE_SCHEMA (( 'AUTOMOTIVE_DESIGN' ));
ENDSEC;

DATA;
#1 = EDGE_CURVE ( 'NONE', #57, #155, #176, .T. ) ;
#2 = VECTOR ( 'NONE', #99, 1000.000000000000000 ) ;
#3 =( GEOMETRIC_REPRESENTATION_CONTEXT ( 3 ) GLOBAL_UNCERTAINTY_ASSIGNED_CONTEXT ( ( #142 ) ) GLOBAL_UNIT_ASSIGNED_CONTEXT ( ( #179, #113, #77 ) ) REPRESENTATION_CONTEXT ( 'NONE', 'WORKASPACE' ) );
#4 = APPLICATION_CONTEXT ( 'automotive_design' ) ;
#5 = LINE ( 'NONE', #8, #59 ) ;
#6 = ORIENTED_EDGE ( 'NONE', *, *, #145, .T. ) ;
#7 = ORIENTED_EDGE ( 'NONE', *, *, #188, .F. ) ;
#8 = CARTESIAN_POINT ( 'NONE',  ( 500.0000000000000000, 250.0000000000000000, 10.00000000000000000 ) ) ;
#9 = FILL_AREA_STYLE_COLOUR ( '', #171 ) ;
#10 = SURFACE_STYLE_FILL_AREA ( #23 ) ;
#11 = ADVANCED_BREP_SHAPE_REPRESENTATION ( '6520214_CNAJF00', ( #112, #127 ), #90 ) ;
#12 = CARTESIAN_POINT ( 'NONE',  ( 500.0000000000000000, -250.0000000000000000, 10.00000000000000000 ) ) ;
#13 = CARTESIAN_POINT ( 'NONE',  ( 0.0000000000000000000, 0.0000000000000000000, 0.0000000000000000000 ) ) ;
#14 = EDGE_LOOP ( 'NONE', ( #80, #106, #187, #157 ) ) ;
#15 = LINE ( 'NONE', #34, #128 ) ;
#16 = AXIS2_PLACEMENT_3D ( 'NONE', #139, #85, #202 ) ;
#17 = PRODUCT_DEFINITION_CONTEXT ( 'detailed design', #144, 'design' ) ;
#18 = FACE_OUTER_BOUND ( 'NONE', #75, .T. ) ;
#19 = ORIENTED_EDGE ( 'NONE', *, *, #1, .T. ) ;
#20 = PRESENTATION_LAYER_ASSIGNMENT (  '', '', ( #115 ) ) ;
#21 = EDGE_LOOP ( 'NONE', ( #38, #27, #7, #184 ) ) ;
#22 = ORIENTED_EDGE ( 'NONE', *, *, #28, .F. ) ;
#23 = FILL_AREA_STYLE ('',( #198 ) ) ;
#24 = SURFACE_SIDE_STYLE ('',( #10 ) ) ;
#25 =( NAMED_UNIT ( * ) PLANE_ANGLE_UNIT ( ) SI_UNIT ( $, .RADIAN. ) );
#26 = UNCERTAINTY_MEASURE_WITH_UNIT (LENGTH_MEASURE( 1.000000000000000100E-005 ), #193, 'distance_accuracy_value', 'NONE');
#27 = ORIENTED_EDGE ( 'NONE', *, *, #149, .F. ) ;
#28 = EDGE_CURVE ( 'NONE', #72, #62, #160, .T. ) ;
#29 = ORIENTED_EDGE ( 'NONE', *, *, #188, .T. ) ;
#30 = ADVANCED_FACE ( 'NONE', ( #108 ), #64, .F. ) ;
#31 = AXIS2_PLACEMENT_3D ( 'NONE', #12, #41, #170 ) ;
#32 = CARTESIAN_POINT ( 'NONE',  ( 500.0000000000000000, -250.0000000000000000, 0.0000000000000000000 ) ) ;
#33 = DIRECTION ( 'NONE',  ( 1.000000000000000000, 0.0000000000000000000, 0.0000000000000000000 ) ) ;
#34 = CARTESIAN_POINT ( 'NONE',  ( -500.0000000000000000, 250.0000000000000000, 10.00000000000000000 ) ) ;
#35 = PLANE ( 'NONE',  #159 ) ;
#36 =( GEOMETRIC_REPRESENTATION_CONTEXT ( 3 ) GLOBAL_UNCERTAINTY_ASSIGNED_CONTEXT ( ( #26 ) ) GLOBAL_UNIT_ASSIGNED_CONTEXT ( ( #193, #92, #63 ) ) REPRESENTATION_CONTEXT ( 'NONE', 'WORKASPACE' ) );
#37 = PLANE ( 'NONE',  #140 ) ;
#38 = ORIENTED_EDGE ( 'NONE', *, *, #121, .T. ) ;
#39 = ORIENTED_EDGE ( 'NONE', *, *, #54, .T. ) ;
#40 = CARTESIAN_POINT ( 'NONE',  ( -500.0000000000000000, 250.0000000000000000, 10.00000000000000000 ) ) ;
#41 = DIRECTION ( 'NONE',  ( -1.000000000000000000, 0.0000000000000000000, 0.0000000000000000000 ) ) ;
#42 = PRESENTATION_STYLE_ASSIGNMENT (( #45 ) ) ;
#43 = LINE ( 'NONE', #169, #191 ) ;
#44 = VECTOR ( 'NONE', #148, 1000.000000000000000 ) ;
#45 = SURFACE_STYLE_USAGE ( .BOTH. , #134 ) ;
#46 = ORIENTED_EDGE ( 'NONE', *, *, #156, .F. ) ;
#47 = DIRECTION ( 'NONE',  ( 0.0000000000000000000, -1.000000000000000000, 0.0000000000000000000 ) ) ;
#48 = FILL_AREA_STYLE ('',( #9 ) ) ;
#49 = CARTESIAN_POINT ( 'NONE',  ( 500.0000000000000000, 250.0000000000000000, 0.0000000000000000000 ) ) ;
#50 = DIRECTION ( 'NONE',  ( -1.000000000000000000, -0.0000000000000000000, -0.0000000000000000000 ) ) ;
#51 = COLOUR_RGB ( '',0.3411764705882353000, 0.3647058823529411600, 0.3803921568627450800 ) ;
#52 = DIRECTION ( 'NONE',  ( 0.0000000000000000000, 1.000000000000000000, -0.0000000000000000000 ) ) ;
#53 = DIRECTION ( 'NONE',  ( 0.0000000000000000000, 0.0000000000000000000, 1.000000000000000000 ) ) ;
#54 = EDGE_CURVE ( 'NONE', #89, #190, #141, .T. ) ;
#55 = DIRECTION ( 'NONE',  ( 1.000000000000000000, 0.0000000000000000000, -0.0000000000000000000 ) ) ;
#56 = FACE_OUTER_BOUND ( 'NONE', #164, .T. ) ;
#57 = VERTEX_POINT ( 'NONE', #163 ) ;
#58 = PRODUCT ( '6520214_CNAJF00', '6520214_CNAJF00', '', ( #162 ) ) ;
#59 = VECTOR ( 'NONE', #195, 1000.000000000000000 ) ;
#60 = AXIS2_PLACEMENT_3D ( 'NONE', #111, #47, #95 ) ;
#61 = VECTOR ( 'NONE', #166, 1000.000000000000000 ) ;
#62 = VERTEX_POINT ( 'NONE', #197 ) ;
#63 =( NAMED_UNIT ( * ) SI_UNIT ( $, .STERADIAN. ) SOLID_ANGLE_UNIT ( ) );
#64 = PLANE ( 'NONE',  #60 ) ;
#65 = DIRECTION ( 'NONE',  ( 0.0000000000000000000, 0.0000000000000000000, -1.000000000000000000 ) ) ;
#66 = STYLED_ITEM ( 'NONE', ( #104 ), #112 ) ;
#67 = DIRECTION ( 'NONE',  ( -1.000000000000000000, -0.0000000000000000000, 0.0000000000000000000 ) ) ;
#68 = VECTOR ( 'NONE', #180, 1000.000000000000000 ) ;
#69 = ORIENTED_EDGE ( 'NONE', *, *, #126, .F. ) ;
#70 = CARTESIAN_POINT ( 'NONE',  ( 500.0000000000000000, -250.0000000000000000, 0.0000000000000000000 ) ) ;
#71 = ORIENTED_EDGE ( 'NONE', *, *, #98, .T. ) ;
#72 = VERTEX_POINT ( 'NONE', #114 ) ;
#73 = PRESENTATION_LAYER_ASSIGNMENT (  '', '', ( #66 ) ) ;
#74 = MECHANICAL_DESIGN_GEOMETRIC_PRESENTATION_REPRESENTATION (  '', ( #66 ), #36 ) ;
#75 = EDGE_LOOP ( 'NONE', ( #29, #192, #122, #19 ) ) ;
#76 = DIRECTION ( 'NONE',  ( 0.0000000000000000000, 0.0000000000000000000, 1.000000000000000000 ) ) ;
#77 =( NAMED_UNIT ( * ) SI_UNIT ( $, .STERADIAN. ) SOLID_ANGLE_UNIT ( ) );
#78 = SURFACE_STYLE_USAGE ( .BOTH. , #24 ) ;
#79 = APPLICATION_PROTOCOL_DEFINITION ( 'draft international standard', 'automotive_design', 1998, #144 ) ;
#80 = ORIENTED_EDGE ( 'NONE', *, *, #28, .T. ) ;
#81 = CARTESIAN_POINT ( 'NONE',  ( -500.0000000000000000, -250.0000000000000000, 10.00000000000000000 ) ) ;
#82 = DIRECTION ( 'NONE',  ( 0.0000000000000000000, 0.0000000000000000000, 1.000000000000000000 ) ) ;
#83 = LINE ( 'NONE', #150, #178 ) ;
#84 = PLANE ( 'NONE',  #131 ) ;
#85 = DIRECTION ( 'NONE',  ( 0.0000000000000000000, 0.0000000000000000000, 1.000000000000000000 ) ) ;
#86 = PRODUCT_DEFINITION ( 'UNKNOWN', '', #174, #17 ) ;
#87 = LINE ( 'NONE', #199, #137 ) ;
#88 = EDGE_CURVE ( 'NONE', #62, #89, #15, .T. ) ;
#89 = VERTEX_POINT ( 'NONE', #136 ) ;
#90 =( GEOMETRIC_REPRESENTATION_CONTEXT ( 3 ) GLOBAL_UNCERTAINTY_ASSIGNED_CONTEXT ( ( #173 ) ) GLOBAL_UNIT_ASSIGNED_CONTEXT ( ( #97, #25, #196 ) ) REPRESENTATION_CONTEXT ( 'NONE', 'WORKASPACE' ) );
#91 = EDGE_LOOP ( 'NONE', ( #46, #69, #147, #200 ) ) ;
#92 =( NAMED_UNIT ( * ) PLANE_ANGLE_UNIT ( ) SI_UNIT ( $, .RADIAN. ) );
#93 = FACE_OUTER_BOUND ( 'NONE', #172, .T. ) ;
#94 = CARTESIAN_POINT ( 'NONE',  ( 500.0000000000000000, 250.0000000000000000, 10.00000000000000000 ) ) ;
#95 = DIRECTION ( 'NONE',  ( 0.0000000000000000000, -0.0000000000000000000, -1.000000000000000000 ) ) ;
#96 = CARTESIAN_POINT ( 'NONE',  ( -500.0000000000000000, -250.0000000000000000, 10.00000000000000000 ) ) ;
#97 =( LENGTH_UNIT ( ) NAMED_UNIT ( * ) SI_UNIT ( .MILLI., .METRE. ) );
#98 = EDGE_CURVE ( 'NONE', #125, #62, #83, .T. ) ;
#99 = DIRECTION ( 'NONE',  ( 0.0000000000000000000, -1.000000000000000000, -0.0000000000000000000 ) ) ;
#100 = PLANE ( 'NONE',  #16 ) ;
#101 = VECTOR ( 'NONE', #67, 1000.000000000000000 ) ;
#102 = VERTEX_POINT ( 'NONE', #49 ) ;
#103 = EDGE_CURVE ( 'NONE', #89, #57, #119, .T. ) ;
#104 = PRESENTATION_STYLE_ASSIGNMENT (( #78 ) ) ;
#105 = LINE ( 'NONE', #32, #61 ) ;
#106 = ORIENTED_EDGE ( 'NONE', *, *, #98, .F. ) ;
#107 = APPLICATION_PROTOCOL_DEFINITION ( 'draft international standard', 'automotive_design', 1998, #4 ) ;
#108 = FACE_OUTER_BOUND ( 'NONE', #14, .T. ) ;
#109 = CARTESIAN_POINT ( 'NONE',  ( -500.0000000000000000, 250.0000000000000000, 10.00000000000000000 ) ) ;
#110 = ADVANCED_FACE ( 'NONE', ( #18 ), #35, .F. ) ;
#111 = CARTESIAN_POINT ( 'NONE',  ( 500.0000000000000000, 250.0000000000000000, 10.00000000000000000 ) ) ;
#112 = MANIFOLD_SOLID_BREP ( 'Importiert1', #120 ) ;
#113 =( NAMED_UNIT ( * ) PLANE_ANGLE_UNIT ( ) SI_UNIT ( $, .RADIAN. ) );
#114 = CARTESIAN_POINT ( 'NONE',  ( -500.0000000000000000, 250.0000000000000000, 0.0000000000000000000 ) ) ;
#115 = STYLED_ITEM ( 'NONE', ( #42 ), #11 ) ;
#116 = DIRECTION ( 'NONE',  ( 0.0000000000000000000, -1.000000000000000000, -0.0000000000000000000 ) ) ;
#117 = CARTESIAN_POINT ( 'NONE',  ( -500.0000000000000000, -250.0000000000000000, 10.00000000000000000 ) ) ;
#118 = CARTESIAN_POINT ( 'NONE',  ( -500.0000000000000000, 250.0000000000000000, 0.0000000000000000000 ) ) ;
#119 = LINE ( 'NONE', #135, #68 ) ;
#120 = CLOSED_SHELL ( 'NONE', ( #151, #182, #30, #129, #110, #130 ) ) ;
#121 = EDGE_CURVE ( 'NONE', #102, #125, #5, .T. ) ;
#122 = ORIENTED_EDGE ( 'NONE', *, *, #103, .T. ) ;
#123 = PRODUCT_RELATED_PRODUCT_CATEGORY ( 'part', '', ( #58 ) ) ;
#124 = VECTOR ( 'NONE', #181, 1000.000000000000000 ) ;
#125 = VERTEX_POINT ( 'NONE', #94 ) ;
#126 = EDGE_CURVE ( 'NONE', #155, #102, #105, .T. ) ;
#127 = AXIS2_PLACEMENT_3D ( 'NONE', #13, #76, #33 ) ;
#128 = VECTOR ( 'NONE', #116, 1000.000000000000000 ) ;
#129 = ADVANCED_FACE ( 'NONE', ( #146 ), #138, .F. ) ;
#130 = ADVANCED_FACE ( 'NONE', ( #56 ), #37, .T. ) ;
#131 = AXIS2_PLACEMENT_3D ( 'NONE', #40, #152, #65 ) ;
#132 = CARTESIAN_POINT ( 'NONE',  ( -500.0000000000000000, -250.0000000000000000, 0.0000000000000000000 ) ) ;
#133 = ORIENTED_EDGE ( 'NONE', *, *, #103, .F. ) ;
#134 = SURFACE_SIDE_STYLE ('',( #177 ) ) ;
#135 = CARTESIAN_POINT ( 'NONE',  ( -500.0000000000000000, -250.0000000000000000, 10.00000000000000000 ) ) ;
#136 = CARTESIAN_POINT ( 'NONE',  ( -500.0000000000000000, -250.0000000000000000, 10.00000000000000000 ) ) ;
#137 = VECTOR ( 'NONE', #52, 1000.000000000000000 ) ;
#138 = PLANE ( 'NONE',  #31 ) ;
#139 = CARTESIAN_POINT ( 'NONE',  ( -500.0000000000000000, -250.0000000000000000, 0.0000000000000000000 ) ) ;
#140 = AXIS2_PLACEMENT_3D ( 'NONE', #117, #53, #55 ) ;
#141 = LINE ( 'NONE', #96, #44 ) ;
#142 = UNCERTAINTY_MEASURE_WITH_UNIT (LENGTH_MEASURE( 1.000000000000000100E-005 ), #179, 'distance_accuracy_value', 'NONE');
#143 = LINE ( 'NONE', #118, #101 ) ;
#144 = APPLICATION_CONTEXT ( 'automotive_design' ) ;
#145 = EDGE_CURVE ( 'NONE', #72, #57, #167, .T. ) ;
#146 = FACE_OUTER_BOUND ( 'NONE', #21, .T. ) ;
#147 = ORIENTED_EDGE ( 'NONE', *, *, #1, .F. ) ;
#148 = DIRECTION ( 'NONE',  ( 1.000000000000000000, 0.0000000000000000000, -0.0000000000000000000 ) ) ;
#149 = EDGE_CURVE ( 'NONE', #190, #125, #87, .T. ) ;
#150 = CARTESIAN_POINT ( 'NONE',  ( 500.0000000000000000, 250.0000000000000000, 10.00000000000000000 ) ) ;
#151 = ADVANCED_FACE ( 'NONE', ( #186 ), #100, .F. ) ;
#152 = DIRECTION ( 'NONE',  ( 1.000000000000000000, 0.0000000000000000000, 0.0000000000000000000 ) ) ;
#153 = CARTESIAN_POINT ( 'NONE',  ( 500.0000000000000000, -250.0000000000000000, 10.00000000000000000 ) ) ;
#154 = VECTOR ( 'NONE', #165, 1000.000000000000000 ) ;
#155 = VERTEX_POINT ( 'NONE', #70 ) ;
#156 = EDGE_CURVE ( 'NONE', #102, #72, #143, .T. ) ;
#157 = ORIENTED_EDGE ( 'NONE', *, *, #156, .T. ) ;
#158 = PRODUCT_DEFINITION_SHAPE ( 'NONE', 'NONE',  #86 ) ;
#159 = AXIS2_PLACEMENT_3D ( 'NONE', #81, #161, #183 ) ;
#160 = LINE ( 'NONE', #109, #124 ) ;
#161 = DIRECTION ( 'NONE',  ( 0.0000000000000000000, 1.000000000000000000, 0.0000000000000000000 ) ) ;
#162 = PRODUCT_CONTEXT ( 'NONE', #4, 'mechanical' ) ;
#163 = CARTESIAN_POINT ( 'NONE',  ( -500.0000000000000000, -250.0000000000000000, 0.0000000000000000000 ) ) ;
#164 = EDGE_LOOP ( 'NONE', ( #201, #71, #175, #39 ) ) ;
#165 = DIRECTION ( 'NONE',  ( 1.000000000000000000, 0.0000000000000000000, -0.0000000000000000000 ) ) ;
#166 = DIRECTION ( 'NONE',  ( -0.0000000000000000000, 1.000000000000000000, 0.0000000000000000000 ) ) ;
#167 = LINE ( 'NONE', #185, #2 ) ;
#168 = ORIENTED_EDGE ( 'NONE', *, *, #88, .F. ) ;
#169 = CARTESIAN_POINT ( 'NONE',  ( 500.0000000000000000, -250.0000000000000000, 10.00000000000000000 ) ) ;
#170 = DIRECTION ( 'NONE',  ( 0.0000000000000000000, 0.0000000000000000000, 1.000000000000000000 ) ) ;
#171 = COLOUR_RGB ( '',0.7529411764705882200, 0.7529411764705882200, 0.7529411764705882200 ) ;
#172 = EDGE_LOOP ( 'NONE', ( #133, #168, #22, #6 ) ) ;
#173 = UNCERTAINTY_MEASURE_WITH_UNIT (LENGTH_MEASURE( 1.000000000000000100E-005 ), #97, 'distance_accuracy_value', 'NONE');
#174 = PRODUCT_DEFINITION_FORMATION_WITH_SPECIFIED_SOURCE ( 'ANY', '', #58, .NOT_KNOWN. ) ;
#175 = ORIENTED_EDGE ( 'NONE', *, *, #88, .T. ) ;
#176 = LINE ( 'NONE', #132, #154 ) ;
#177 = SURFACE_STYLE_FILL_AREA ( #48 ) ;
#178 = VECTOR ( 'NONE', #50, 1000.000000000000000 ) ;
#179 =( LENGTH_UNIT ( ) NAMED_UNIT ( * ) SI_UNIT ( .MILLI., .METRE. ) );
#180 = DIRECTION ( 'NONE',  ( 0.0000000000000000000, 0.0000000000000000000, -1.000000000000000000 ) ) ;
#181 = DIRECTION ( 'NONE',  ( -0.0000000000000000000, -0.0000000000000000000, 1.000000000000000000 ) ) ;
#182 = ADVANCED_FACE ( 'NONE', ( #93 ), #84, .F. ) ;
#183 = DIRECTION ( 'NONE',  ( 0.0000000000000000000, -0.0000000000000000000, 1.000000000000000000 ) ) ;
#184 = ORIENTED_EDGE ( 'NONE', *, *, #126, .T. ) ;
#185 = CARTESIAN_POINT ( 'NONE',  ( -500.0000000000000000, -250.0000000000000000, 0.0000000000000000000 ) ) ;
#186 = FACE_OUTER_BOUND ( 'NONE', #91, .T. ) ;
#187 = ORIENTED_EDGE ( 'NONE', *, *, #121, .F. ) ;
#188 = EDGE_CURVE ( 'NONE', #155, #190, #43, .T. ) ;
#189 = SHAPE_DEFINITION_REPRESENTATION ( #158, #11 ) ;
#190 = VERTEX_POINT ( 'NONE', #153 ) ;
#191 = VECTOR ( 'NONE', #82, 1000.000000000000000 ) ;
#192 = ORIENTED_EDGE ( 'NONE', *, *, #54, .F. ) ;
#193 =( LENGTH_UNIT ( ) NAMED_UNIT ( * ) SI_UNIT ( .MILLI., .METRE. ) );
#194 = MECHANICAL_DESIGN_GEOMETRIC_PRESENTATION_REPRESENTATION (  '', ( #115 ), #3 ) ;
#195 = DIRECTION ( 'NONE',  ( -0.0000000000000000000, 0.0000000000000000000, 1.000000000000000000 ) ) ;
#196 =( NAMED_UNIT ( * ) SI_UNIT ( $, .STERADIAN. ) SOLID_ANGLE_UNIT ( ) );
#197 = CARTESIAN_POINT ( 'NONE',  ( -500.0000000000000000, 250.0000000000000000, 10.00000000000000000 ) ) ;
#198 = FILL_AREA_STYLE_COLOUR ( '', #51 ) ;
#199 = CARTESIAN_POINT ( 'NONE',  ( 500.0000000000000000, -250.0000000000000000, 10.00000000000000000 ) ) ;
#200 = ORIENTED_EDGE ( 'NONE', *, *, #145, .F. ) ;
#201 = ORIENTED_EDGE ( 'NONE', *, *, #149, .T. ) ;
#202 = DIRECTION ( 'NONE',  ( 1.000000000000000000, 0.0000000000000000000, -0.0000000000000000000 ) ) ;
ENDSEC;
END-ISO-10303-21;
