ISO-10303-21;
HEADER;
FILE_DESCRIPTION (( 'STEP AP214' ),
    '1' );
FILE_NAME ('6520218',
    '2019-02-01T12:48:32',
    ( '' ),
    ('JUGARD+KÜNSTNER GmbH'),
    'SwSTEP 2.0',
    'SolidWorks 2017',
    '' );
FILE_SCHEMA (( 'AUTOMOTIVE_DESIGN' ));
ENDSEC;

DATA;
#1 = VECTOR ( 'NONE', #177, 1000.000000000000000 ) ;
#2 = EDGE_LOOP ( 'NONE', ( #144, #131, #43, #143 ) ) ;
#3 = VECTOR ( 'NONE', #127, 1000.000000000000000 ) ;
#4 = CARTESIAN_POINT ( 'NONE',  ( -500.0000000000000000, 250.0000000000000000, -6.999999999999999100 ) ) ;
#5 = EDGE_CURVE ( 'NONE', #114, #83, #156, .T. ) ;
#6 = ORIENTED_EDGE ( 'NONE', *, *, #101, .T. ) ;
#7 = DIRECTION ( 'NONE',  ( 1.000000000000000000, 0.0000000000000000000, -0.0000000000000000000 ) ) ;
#8 = CARTESIAN_POINT ( 'NONE',  ( -500.0000000000000000, -250.0000000000000000, -7.000000000000000000 ) ) ;
#9 = COLOUR_RGB ( '',0.3411764705882353000, 0.3647058823529411600, 0.3803921568627450800 ) ;
#10 =( NAMED_UNIT ( * ) SI_UNIT ( $, .STERADIAN. ) SOLID_ANGLE_UNIT ( ) );
#11 =( NAMED_UNIT ( * ) PLANE_ANGLE_UNIT ( ) SI_UNIT ( $, .RADIAN. ) );
#12 = CARTESIAN_POINT ( 'NONE',  ( 500.0000000000000000, -250.0000000000000000, 13.00000000000000200 ) ) ;
#13 = PRODUCT_DEFINITION ( 'UNKNOWN', '', #107, #102 ) ;
#14 = ORIENTED_EDGE ( 'NONE', *, *, #109, .T. ) ;
#15 = VECTOR ( 'NONE', #78, 1000.000000000000000 ) ;
#16 = ORIENTED_EDGE ( 'NONE', *, *, #51, .T. ) ;
#17 = ORIENTED_EDGE ( 'NONE', *, *, #101, .F. ) ;
#18 = CARTESIAN_POINT ( 'NONE',  ( -500.0000000000000000, -250.0000000000000000, -7.000000000000000000 ) ) ;
#19 = ORIENTED_EDGE ( 'NONE', *, *, #45, .F. ) ;
#20 = CARTESIAN_POINT ( 'NONE',  ( 500.0000000000000000, 250.0000000000000000, 13.00000000000000200 ) ) ;
#21 = DIRECTION ( 'NONE',  ( 0.0000000000000000000, 0.0000000000000000000, 1.000000000000000000 ) ) ;
#22 = DIRECTION ( 'NONE',  ( 0.0000000000000000000, 0.0000000000000000000, 1.000000000000000000 ) ) ;
#23 = ORIENTED_EDGE ( 'NONE', *, *, #67, .F. ) ;
#24 = CARTESIAN_POINT ( 'NONE',  ( 500.0000000000000000, -250.0000000000000000, -7.000000000000000000 ) ) ;
#25 = PRODUCT ( '6520218_CNAJF00', '6520218_CNAJF00', '', ( #44 ) ) ;
#26 = APPLICATION_CONTEXT ( 'automotive_design' ) ;
#27 =( LENGTH_UNIT ( ) NAMED_UNIT ( * ) SI_UNIT ( .MILLI., .METRE. ) );
#28 = ORIENTED_EDGE ( 'NONE', *, *, #145, .T. ) ;
#29 = DIRECTION ( 'NONE',  ( 0.0000000000000000000, 1.000000000000000000, -0.0000000000000000000 ) ) ;
#30 =( NAMED_UNIT ( * ) PLANE_ANGLE_UNIT ( ) SI_UNIT ( $, .RADIAN. ) );
#31 = VECTOR ( 'NONE', #73, 1000.000000000000000 ) ;
#32 = VECTOR ( 'NONE', #71, 1000.000000000000000 ) ;
#33 = VERTEX_POINT ( 'NONE', #87 ) ;
#34 = ORIENTED_EDGE ( 'NONE', *, *, #199, .T. ) ;
#35 = COLOUR_RGB ( '',0.7529411764705882200, 0.7529411764705882200, 0.7529411764705882200 ) ;
#36 = ADVANCED_FACE ( 'NONE', ( #48 ), #46, .F. ) ;
#37 = UNCERTAINTY_MEASURE_WITH_UNIT (LENGTH_MEASURE( 1.000000000000000100E-005 ), #180, 'distance_accuracy_value', 'NONE');
#38 = PLANE ( 'NONE',  #147 ) ;
#39 = CARTESIAN_POINT ( 'NONE',  ( 500.0000000000000000, -250.0000000000000000, 13.00000000000000200 ) ) ;
#40 = FACE_OUTER_BOUND ( 'NONE', #2, .T. ) ;
#41 = DIRECTION ( 'NONE',  ( 0.0000000000000000000, -1.000000000000000000, 0.0000000000000000000 ) ) ;
#42 = VECTOR ( 'NONE', #150, 1000.000000000000000 ) ;
#43 = ORIENTED_EDGE ( 'NONE', *, *, #145, .F. ) ;
#44 = PRODUCT_CONTEXT ( 'NONE', #140, 'mechanical' ) ;
#45 = EDGE_CURVE ( 'NONE', #134, #33, #116, .T. ) ;
#46 = PLANE ( 'NONE',  #54 ) ;
#47 = AXIS2_PLACEMENT_3D ( 'NONE', #123, #60, #64 ) ;
#48 = FACE_OUTER_BOUND ( 'NONE', #55, .T. ) ;
#49 = AXIS2_PLACEMENT_3D ( 'NONE', #20, #41, #138 ) ;
#50 = ORIENTED_EDGE ( 'NONE', *, *, #162, .F. ) ;
#51 = EDGE_CURVE ( 'NONE', #160, #134, #117, .T. ) ;
#52 = PRESENTATION_STYLE_ASSIGNMENT (( #126 ) ) ;
#53 = ORIENTED_EDGE ( 'NONE', *, *, #67, .T. ) ;
#54 = AXIS2_PLACEMENT_3D ( 'NONE', #168, #201, #198 ) ;
#55 = EDGE_LOOP ( 'NONE', ( #172, #100, #50, #118 ) ) ;
#56 =( NAMED_UNIT ( * ) SI_UNIT ( $, .STERADIAN. ) SOLID_ANGLE_UNIT ( ) );
#57 = DIRECTION ( 'NONE',  ( 1.000000000000000000, 0.0000000000000000000, -0.0000000000000000000 ) ) ;
#58 =( NAMED_UNIT ( * ) PLANE_ANGLE_UNIT ( ) SI_UNIT ( $, .RADIAN. ) );
#59 = CLOSED_SHELL ( 'NONE', ( #191, #36, #94, #68, #132, #133 ) ) ;
#60 = DIRECTION ( 'NONE',  ( 0.0000000000000000000, 0.0000000000000000000, 1.000000000000000000 ) ) ;
#61 = DIRECTION ( 'NONE',  ( -1.000000000000000000, -0.0000000000000000000, -0.0000000000000000000 ) ) ;
#62 = PRODUCT_DEFINITION_SHAPE ( 'NONE', 'NONE',  #13 ) ;
#63 = EDGE_LOOP ( 'NONE', ( #171, #19, #17, #14 ) ) ;
#64 = DIRECTION ( 'NONE',  ( 1.000000000000000000, 0.0000000000000000000, 0.0000000000000000000 ) ) ;
#65 =( GEOMETRIC_REPRESENTATION_CONTEXT ( 3 ) GLOBAL_UNCERTAINTY_ASSIGNED_CONTEXT ( ( #37 ) ) GLOBAL_UNIT_ASSIGNED_CONTEXT ( ( #180, #11, #10 ) ) REPRESENTATION_CONTEXT ( 'NONE', 'WORKASPACE' ) );
#66 = FACE_OUTER_BOUND ( 'NONE', #190, .T. ) ;
#67 = EDGE_CURVE ( 'NONE', #135, #160, #113, .T. ) ;
#68 = ADVANCED_FACE ( 'NONE', ( #194 ), #164, .F. ) ;
#69 = VECTOR ( 'NONE', #158, 1000.000000000000000 ) ;
#70 = VERTEX_POINT ( 'NONE', #182 ) ;
#71 = DIRECTION ( 'NONE',  ( -0.0000000000000000000, 0.0000000000000000000, 1.000000000000000000 ) ) ;
#72 =( GEOMETRIC_REPRESENTATION_CONTEXT ( 3 ) GLOBAL_UNCERTAINTY_ASSIGNED_CONTEXT ( ( #85 ) ) GLOBAL_UNIT_ASSIGNED_CONTEXT ( ( #74, #58, #56 ) ) REPRESENTATION_CONTEXT ( 'NONE', 'WORKASPACE' ) );
#73 = DIRECTION ( 'NONE',  ( -1.000000000000000000, -0.0000000000000000000, 0.0000000000000000000 ) ) ;
#74 =( LENGTH_UNIT ( ) NAMED_UNIT ( * ) SI_UNIT ( .MILLI., .METRE. ) );
#75 = LINE ( 'NONE', #106, #31 ) ;
#76 = AXIS2_PLACEMENT_3D ( 'NONE', #95, #121, #153 ) ;
#77 = CARTESIAN_POINT ( 'NONE',  ( -500.0000000000000000, 250.0000000000000000, 13.00000000000000200 ) ) ;
#78 = DIRECTION ( 'NONE',  ( 0.0000000000000000000, -1.000000000000000000, -0.0000000000000000000 ) ) ;
#79 =( NAMED_UNIT ( * ) SI_UNIT ( $, .STERADIAN. ) SOLID_ANGLE_UNIT ( ) );
#80 = VECTOR ( 'NONE', #29, 1000.000000000000000 ) ;
#81 = STYLED_ITEM ( 'NONE', ( #183 ), #115 ) ;
#82 = DIRECTION ( 'NONE',  ( 0.0000000000000000000, 0.0000000000000000000, -1.000000000000000000 ) ) ;
#83 = VERTEX_POINT ( 'NONE', #169 ) ;
#84 = FILL_AREA_STYLE ('',( #157 ) ) ;
#85 = UNCERTAINTY_MEASURE_WITH_UNIT (LENGTH_MEASURE( 1.000000000000000100E-005 ), #74, 'distance_accuracy_value', 'NONE');
#86 = AXIS2_PLACEMENT_3D ( 'NONE', #175, #21, #57 ) ;
#87 = CARTESIAN_POINT ( 'NONE',  ( -500.0000000000000000, 250.0000000000000000, 13.00000000000000200 ) ) ;
#88 = ORIENTED_EDGE ( 'NONE', *, *, #199, .F. ) ;
#89 = VECTOR ( 'NONE', #108, 1000.000000000000000 ) ;
#90 = PRESENTATION_LAYER_ASSIGNMENT (  '', '', ( #192 ) ) ;
#91 = ORIENTED_EDGE ( 'NONE', *, *, #124, .T. ) ;
#92 = PRESENTATION_LAYER_ASSIGNMENT (  '', '', ( #81 ) ) ;
#93 = DIRECTION ( 'NONE',  ( 0.0000000000000000000, -1.000000000000000000, -0.0000000000000000000 ) ) ;
#94 = ADVANCED_FACE ( 'NONE', ( #189 ), #136, .F. ) ;
#95 = CARTESIAN_POINT ( 'NONE',  ( -500.0000000000000000, -250.0000000000000000, 13.00000000000000200 ) ) ;
#96 = PLANE ( 'NONE',  #76 ) ;
#97 = LINE ( 'NONE', #195, #3 ) ;
#98 = APPLICATION_PROTOCOL_DEFINITION ( 'draft international standard', 'automotive_design', 1998, #26 ) ;
#99 =( GEOMETRIC_REPRESENTATION_CONTEXT ( 3 ) GLOBAL_UNCERTAINTY_ASSIGNED_CONTEXT ( ( #173 ) ) GLOBAL_UNIT_ASSIGNED_CONTEXT ( ( #27, #30, #79 ) ) REPRESENTATION_CONTEXT ( 'NONE', 'WORKASPACE' ) );
#100 = ORIENTED_EDGE ( 'NONE', *, *, #112, .F. ) ;
#101 = EDGE_CURVE ( 'NONE', #70, #134, #159, .T. ) ;
#102 = PRODUCT_DEFINITION_CONTEXT ( 'detailed design', #26, 'design' ) ;
#103 = PRODUCT_RELATED_PRODUCT_CATEGORY ( 'part', '', ( #25 ) ) ;
#104 = SURFACE_STYLE_USAGE ( .BOTH. , #120 ) ;
#105 = CARTESIAN_POINT ( 'NONE',  ( 500.0000000000000000, -250.0000000000000000, 13.00000000000000200 ) ) ;
#106 = CARTESIAN_POINT ( 'NONE',  ( -500.0000000000000000, 250.0000000000000000, -7.000000000000000000 ) ) ;
#107 = PRODUCT_DEFINITION_FORMATION_WITH_SPECIFIED_SOURCE ( 'ANY', '', #25, .NOT_KNOWN. ) ;
#108 = DIRECTION ( 'NONE',  ( -0.0000000000000000000, 1.000000000000000000, 0.0000000000000000000 ) ) ;
#109 = EDGE_CURVE ( 'NONE', #70, #170, #75, .T. ) ;
#110 = CARTESIAN_POINT ( 'NONE',  ( -500.0000000000000000, -250.0000000000000000, 13.00000000000000200 ) ) ;
#111 = CARTESIAN_POINT ( 'NONE',  ( 500.0000000000000000, -250.0000000000000000, 13.00000000000000200 ) ) ;
#112 = EDGE_CURVE ( 'NONE', #33, #114, #202, .T. ) ;
#113 = LINE ( 'NONE', #12, #69 ) ;
#114 = VERTEX_POINT ( 'NONE', #154 ) ;
#115 = MANIFOLD_SOLID_BREP ( 'Importiert1', #59 ) ;
#116 = LINE ( 'NONE', #200, #146 ) ;
#117 = LINE ( 'NONE', #111, #80 ) ;
#118 = ORIENTED_EDGE ( 'NONE', *, *, #119, .T. ) ;
#119 = EDGE_CURVE ( 'NONE', #170, #83, #163, .T. ) ;
#120 = SURFACE_SIDE_STYLE ('',( #188 ) ) ;
#121 = DIRECTION ( 'NONE',  ( 0.0000000000000000000, 1.000000000000000000, 0.0000000000000000000 ) ) ;
#122 = PLANE ( 'NONE',  #86 ) ;
#123 = CARTESIAN_POINT ( 'NONE',  ( 0.0000000000000000000, 0.0000000000000000000, 0.0000000000000000000 ) ) ;
#124 = EDGE_CURVE ( 'NONE', #135, #70, #148, .T. ) ;
#125 = FILL_AREA_STYLE_COLOUR ( '', #9 ) ;
#126 = SURFACE_STYLE_USAGE ( .BOTH. , #155 ) ;
#127 = DIRECTION ( 'NONE',  ( 1.000000000000000000, 0.0000000000000000000, -0.0000000000000000000 ) ) ;
#128 = AXIS2_PLACEMENT_3D ( 'NONE', #105, #196, #151 ) ;
#129 = FACE_OUTER_BOUND ( 'NONE', #149, .T. ) ;
#130 = SHAPE_DEFINITION_REPRESENTATION ( #62, #161 ) ;
#131 = ORIENTED_EDGE ( 'NONE', *, *, #124, .F. ) ;
#132 = ADVANCED_FACE ( 'NONE', ( #129 ), #96, .F. ) ;
#133 = ADVANCED_FACE ( 'NONE', ( #66 ), #122, .T. ) ;
#134 = VERTEX_POINT ( 'NONE', #179 ) ;
#135 = VERTEX_POINT ( 'NONE', #193 ) ;
#136 = PLANE ( 'NONE',  #49 ) ;
#137 = EDGE_LOOP ( 'NONE', ( #6, #187, #23, #91 ) ) ;
#138 = DIRECTION ( 'NONE',  ( 0.0000000000000000000, -0.0000000000000000000, -1.000000000000000000 ) ) ;
#139 = CARTESIAN_POINT ( 'NONE',  ( 500.0000000000000000, 250.0000000000000000, 13.00000000000000200 ) ) ;
#140 = APPLICATION_CONTEXT ( 'automotive_design' ) ;
#141 = MECHANICAL_DESIGN_GEOMETRIC_PRESENTATION_REPRESENTATION (  '', ( #81 ), #72 ) ;
#142 = SURFACE_STYLE_FILL_AREA ( #84 ) ;
#143 = ORIENTED_EDGE ( 'NONE', *, *, #119, .F. ) ;
#144 = ORIENTED_EDGE ( 'NONE', *, *, #109, .F. ) ;
#145 = EDGE_CURVE ( 'NONE', #83, #135, #197, .T. ) ;
#146 = VECTOR ( 'NONE', #61, 1000.000000000000000 ) ;
#147 = AXIS2_PLACEMENT_3D ( 'NONE', #8, #22, #7 ) ;
#148 = LINE ( 'NONE', #24, #89 ) ;
#149 = EDGE_LOOP ( 'NONE', ( #53, #88, #174, #28 ) ) ;
#150 = DIRECTION ( 'NONE',  ( 1.000000000000000000, 0.0000000000000000000, -0.0000000000000000000 ) ) ;
#151 = DIRECTION ( 'NONE',  ( 0.0000000000000000000, 0.0000000000000000000, 1.000000000000000000 ) ) ;
#152 = FILL_AREA_STYLE ('',( #125 ) ) ;
#153 = DIRECTION ( 'NONE',  ( 0.0000000000000000000, -0.0000000000000000000, 1.000000000000000000 ) ) ;
#154 = CARTESIAN_POINT ( 'NONE',  ( -500.0000000000000000, -250.0000000000000000, 13.00000000000000200 ) ) ;
#155 = SURFACE_SIDE_STYLE ('',( #142 ) ) ;
#156 = LINE ( 'NONE', #110, #186 ) ;
#157 = FILL_AREA_STYLE_COLOUR ( '', #35 ) ;
#158 = DIRECTION ( 'NONE',  ( 0.0000000000000000000, 0.0000000000000000000, 1.000000000000000000 ) ) ;
#159 = LINE ( 'NONE', #139, #32 ) ;
#160 = VERTEX_POINT ( 'NONE', #39 ) ;
#161 = ADVANCED_BREP_SHAPE_REPRESENTATION ( '6520218_CNAJF00', ( #115, #47 ), #65 ) ;
#162 = EDGE_CURVE ( 'NONE', #170, #33, #178, .T. ) ;
#163 = LINE ( 'NONE', #165, #15 ) ;
#164 = PLANE ( 'NONE',  #128 ) ;
#165 = CARTESIAN_POINT ( 'NONE',  ( -500.0000000000000000, -250.0000000000000000, -7.000000000000000000 ) ) ;
#166 = VECTOR ( 'NONE', #93, 1000.000000000000000 ) ;
#167 = ORIENTED_EDGE ( 'NONE', *, *, #112, .T. ) ;
#168 = CARTESIAN_POINT ( 'NONE',  ( -500.0000000000000000, 250.0000000000000000, 13.00000000000000200 ) ) ;
#169 = CARTESIAN_POINT ( 'NONE',  ( -500.0000000000000000, -250.0000000000000000, -6.999999999999999100 ) ) ;
#170 = VERTEX_POINT ( 'NONE', #4 ) ;
#171 = ORIENTED_EDGE ( 'NONE', *, *, #162, .T. ) ;
#172 = ORIENTED_EDGE ( 'NONE', *, *, #5, .F. ) ;
#173 = UNCERTAINTY_MEASURE_WITH_UNIT (LENGTH_MEASURE( 1.000000000000000100E-005 ), #27, 'distance_accuracy_value', 'NONE');
#174 = ORIENTED_EDGE ( 'NONE', *, *, #5, .T. ) ;
#175 = CARTESIAN_POINT ( 'NONE',  ( -500.0000000000000000, -250.0000000000000000, 13.00000000000000200 ) ) ;
#176 = CARTESIAN_POINT ( 'NONE',  ( -500.0000000000000000, 250.0000000000000000, 13.00000000000000200 ) ) ;
#177 = DIRECTION ( 'NONE',  ( -0.0000000000000000000, -0.0000000000000000000, 1.000000000000000000 ) ) ;
#178 = LINE ( 'NONE', #77, #1 ) ;
#179 = CARTESIAN_POINT ( 'NONE',  ( 500.0000000000000000, 250.0000000000000000, 13.00000000000000200 ) ) ;
#180 =( LENGTH_UNIT ( ) NAMED_UNIT ( * ) SI_UNIT ( .MILLI., .METRE. ) );
#181 = APPLICATION_PROTOCOL_DEFINITION ( 'draft international standard', 'automotive_design', 1998, #140 ) ;
#182 = CARTESIAN_POINT ( 'NONE',  ( 500.0000000000000000, 250.0000000000000000, -6.999999999999999100 ) ) ;
#183 = PRESENTATION_STYLE_ASSIGNMENT (( #104 ) ) ;
#184 = ORIENTED_EDGE ( 'NONE', *, *, #45, .T. ) ;
#185 = MECHANICAL_DESIGN_GEOMETRIC_PRESENTATION_REPRESENTATION (  '', ( #192 ), #99 ) ;
#186 = VECTOR ( 'NONE', #82, 1000.000000000000000 ) ;
#187 = ORIENTED_EDGE ( 'NONE', *, *, #51, .F. ) ;
#188 = SURFACE_STYLE_FILL_AREA ( #152 ) ;
#189 = FACE_OUTER_BOUND ( 'NONE', #63, .T. ) ;
#190 = EDGE_LOOP ( 'NONE', ( #16, #184, #167, #34 ) ) ;
#191 = ADVANCED_FACE ( 'NONE', ( #40 ), #38, .F. ) ;
#192 = STYLED_ITEM ( 'NONE', ( #52 ), #161 ) ;
#193 = CARTESIAN_POINT ( 'NONE',  ( 500.0000000000000000, -250.0000000000000000, -6.999999999999999100 ) ) ;
#194 = FACE_OUTER_BOUND ( 'NONE', #137, .T. ) ;
#195 = CARTESIAN_POINT ( 'NONE',  ( -500.0000000000000000, -250.0000000000000000, 13.00000000000000200 ) ) ;
#196 = DIRECTION ( 'NONE',  ( -1.000000000000000000, 0.0000000000000000000, 0.0000000000000000000 ) ) ;
#197 = LINE ( 'NONE', #18, #42 ) ;
#198 = DIRECTION ( 'NONE',  ( 0.0000000000000000000, 0.0000000000000000000, -1.000000000000000000 ) ) ;
#199 = EDGE_CURVE ( 'NONE', #114, #160, #97, .T. ) ;
#200 = CARTESIAN_POINT ( 'NONE',  ( 500.0000000000000000, 250.0000000000000000, 13.00000000000000200 ) ) ;
#201 = DIRECTION ( 'NONE',  ( 1.000000000000000000, 0.0000000000000000000, 0.0000000000000000000 ) ) ;
#202 = LINE ( 'NONE', #176, #166 ) ;
ENDSEC;
END-ISO-10303-21;
