ISO-10303-21;
HEADER;
FILE_DESCRIPTION (( 'STEP AP214' ),
    '1' );
FILE_NAME ('6520248',
    '2019-02-01T12:48:34',
    ( '' ),
    ('JUGARD+KÜNSTNER GmbH'),
    'SwSTEP 2.0',
    'SolidWorks 2017',
    '' );
FILE_SCHEMA (( 'AUTOMOTIVE_DESIGN' ));
ENDSEC;

DATA;
#1 = DIRECTION ( 'NONE',  ( 0.0000000000000000000, 1.000000000000000000, 0.0000000000000000000 ) ) ;
#2 = CARTESIAN_POINT ( 'NONE',  ( -500.0000000000000000, -250.0000000000000000, 3.000000000000000000 ) ) ;
#3 = SHAPE_DEFINITION_REPRESENTATION ( #54, #67 ) ;
#4 = ADVANCED_FACE ( 'NONE', ( #176 ), #91, .F. ) ;
#5 = LINE ( 'NONE', #149, #153 ) ;
#6 = ORIENTED_EDGE ( 'NONE', *, *, #187, .F. ) ;
#7 = LINE ( 'NONE', #147, #77 ) ;
#8 = ADVANCED_FACE ( 'NONE', ( #191 ), #195, .F. ) ;
#9 = EDGE_CURVE ( 'NONE', #66, #197, #140, .T. ) ;
#10 = DIRECTION ( 'NONE',  ( 0.0000000000000000000, 0.0000000000000000000, 1.000000000000000000 ) ) ;
#11 = ORIENTED_EDGE ( 'NONE', *, *, #98, .F. ) ;
#12 =( NAMED_UNIT ( * ) SI_UNIT ( $, .STERADIAN. ) SOLID_ANGLE_UNIT ( ) );
#13 =( NAMED_UNIT ( * ) PLANE_ANGLE_UNIT ( ) SI_UNIT ( $, .RADIAN. ) );
#14 = SURFACE_STYLE_USAGE ( .BOTH. , #215 ) ;
#15 = PLANE ( 'NONE',  #45 ) ;
#16 = ORIENTED_EDGE ( 'NONE', *, *, #166, .F. ) ;
#17 = DIRECTION ( 'NONE',  ( 0.0000000000000000000, 1.000000000000000000, -0.0000000000000000000 ) ) ;
#18 = CARTESIAN_POINT ( 'NONE',  ( 0.0000000000000000000, 0.0000000000000000000, 0.0000000000000000000 ) ) ;
#19 = DIRECTION ( 'NONE',  ( 0.0000000000000000000, -1.000000000000000000, -0.0000000000000000000 ) ) ;
#20 = UNCERTAINTY_MEASURE_WITH_UNIT (LENGTH_MEASURE( 1.000000000000000100E-005 ), #142, 'distance_accuracy_value', 'NONE');
#21 = ORIENTED_EDGE ( 'NONE', *, *, #198, .T. ) ;
#22 = LINE ( 'NONE', #143, #216 ) ;
#23 = DIRECTION ( 'NONE',  ( 1.000000000000000000, 0.0000000000000000000, 0.0000000000000000000 ) ) ;
#24 = DIRECTION ( 'NONE',  ( 0.0000000000000000000, 0.0000000000000000000, 1.000000000000000000 ) ) ;
#25 = DIRECTION ( 'NONE',  ( 0.0000000000000000000, -1.000000000000000000, -0.0000000000000000000 ) ) ;
#26 = FILL_AREA_STYLE_COLOUR ( '', #145 ) ;
#27 = FILL_AREA_STYLE_COLOUR ( '', #154 ) ;
#28 = FACE_OUTER_BOUND ( 'NONE', #159, .T. ) ;
#29 = PRESENTATION_STYLE_ASSIGNMENT (( #228 ) ) ;
#30 = PLANE ( 'NONE',  #133 ) ;
#31 =( NAMED_UNIT ( * ) PLANE_ANGLE_UNIT ( ) SI_UNIT ( $, .RADIAN. ) );
#32 = LINE ( 'NONE', #200, #211 ) ;
#33 = MANIFOLD_SOLID_BREP ( 'Importiert1', #59 ) ;
#34 = PRESENTATION_STYLE_ASSIGNMENT (( #229 ) ) ;
#35 = DIRECTION ( 'NONE',  ( 0.0000000000000000000, 0.0000000000000000000, 1.000000000000000000 ) ) ;
#36 = VECTOR ( 'NONE', #17, 1000.000000000000000 ) ;
#37 = VECTOR ( 'NONE', #185, 1000.000000000000000 ) ;
#38 = AXIS2_PLACEMENT_3D ( 'NONE', #61, #180, #10 ) ;
#39 = CARTESIAN_POINT ( 'NONE',  ( 500.0000000000000000, -250.0000000000000000, 3.000000000000000000 ) ) ;
#40 = UNCERTAINTY_MEASURE_WITH_UNIT (LENGTH_MEASURE( 1.000000000000000100E-005 ), #167, 'distance_accuracy_value', 'NONE');
#41 = CARTESIAN_POINT ( 'NONE',  ( 500.0000000000000000, 250.0000000000000000, 0.0000000000000000000 ) ) ;
#42 =( NAMED_UNIT ( * ) SI_UNIT ( $, .STERADIAN. ) SOLID_ANGLE_UNIT ( ) );
#43 = APPLICATION_CONTEXT ( 'automotive_design' ) ;
#44 = CARTESIAN_POINT ( 'NONE',  ( -500.0000000000000000, -250.0000000000000000, 3.000000000000000000 ) ) ;
#45 = AXIS2_PLACEMENT_3D ( 'NONE', #83, #65, #123 ) ;
#46 = DIRECTION ( 'NONE',  ( 1.000000000000000000, 0.0000000000000000000, -0.0000000000000000000 ) ) ;
#47 = CARTESIAN_POINT ( 'NONE',  ( -500.0000000000000000, 250.0000000000000000, 0.0000000000000000000 ) ) ;
#48 = ORIENTED_EDGE ( 'NONE', *, *, #88, .F. ) ;
#49 = APPLICATION_CONTEXT ( 'automotive_design' ) ;
#50 = SURFACE_STYLE_FILL_AREA ( #64 ) ;
#51 = SURFACE_STYLE_FILL_AREA ( #227 ) ;
#52 = VERTEX_POINT ( 'NONE', #117 ) ;
#53 = APPLICATION_PROTOCOL_DEFINITION ( 'draft international standard', 'automotive_design', 1998, #49 ) ;
#54 = PRODUCT_DEFINITION_SHAPE ( 'NONE', 'NONE',  #90 ) ;
#55 = VERTEX_POINT ( 'NONE', #78 ) ;
#56 =( LENGTH_UNIT ( ) NAMED_UNIT ( * ) SI_UNIT ( .MILLI., .METRE. ) );
#57 = PRODUCT_RELATED_PRODUCT_CATEGORY ( 'part', '', ( #204 ) ) ;
#58 =( LENGTH_UNIT ( ) NAMED_UNIT ( * ) SI_UNIT ( .MILLI., .METRE. ) );
#59 = CLOSED_SHELL ( 'NONE', ( #70, #4, #225, #8, #175, #94 ) ) ;
#60 = DIRECTION ( 'NONE',  ( 0.0000000000000000000, 0.0000000000000000000, -1.000000000000000000 ) ) ;
#61 = CARTESIAN_POINT ( 'NONE',  ( 500.0000000000000000, -250.0000000000000000, 3.000000000000000000 ) ) ;
#62 = CARTESIAN_POINT ( 'NONE',  ( -500.0000000000000000, 250.0000000000000000, 3.000000000000000000 ) ) ;
#63 = APPLICATION_PROTOCOL_DEFINITION ( 'draft international standard', 'automotive_design', 1998, #43 ) ;
#64 = FILL_AREA_STYLE ('',( #218 ) ) ;
#65 = DIRECTION ( 'NONE',  ( 0.0000000000000000000, -1.000000000000000000, 0.0000000000000000000 ) ) ;
#66 = VERTEX_POINT ( 'NONE', #141 ) ;
#67 = ADVANCED_BREP_SHAPE_REPRESENTATION ( '6520248_CNAJF00', ( #33, #113 ), #184 ) ;
#68 = CARTESIAN_POINT ( 'NONE',  ( -500.0000000000000000, -250.0000000000000000, 3.000000000000000000 ) ) ;
#69 = AXIS2_PLACEMENT_3D ( 'NONE', #134, #23, #60 ) ;
#70 = ADVANCED_FACE ( 'NONE', ( #71 ), #138, .F. ) ;
#71 = FACE_OUTER_BOUND ( 'NONE', #87, .T. ) ;
#72 = PRODUCT_CONTEXT ( 'NONE', #43, 'mechanical' ) ;
#73 = EDGE_CURVE ( 'NONE', #152, #55, #93, .T. ) ;
#74 = SURFACE_STYLE_USAGE ( .BOTH. , #81 ) ;
#75 = PRESENTATION_LAYER_ASSIGNMENT (  '', '', ( #212 ) ) ;
#76 = EDGE_LOOP ( 'NONE', ( #213, #99, #217, #21 ) ) ;
#77 = VECTOR ( 'NONE', #199, 1000.000000000000000 ) ;
#78 = CARTESIAN_POINT ( 'NONE',  ( 500.0000000000000000, -250.0000000000000000, 3.000000000000000000 ) ) ;
#79 = DIRECTION ( 'NONE',  ( -0.0000000000000000000, 1.000000000000000000, 0.0000000000000000000 ) ) ;
#80 = MECHANICAL_DESIGN_GEOMETRIC_PRESENTATION_REPRESENTATION (  '', ( #212 ), #127 ) ;
#81 = SURFACE_SIDE_STYLE ('',( #50 ) ) ;
#82 = CARTESIAN_POINT ( 'NONE',  ( 500.0000000000000000, -250.0000000000000000, 0.0000000000000000000 ) ) ;
#83 = CARTESIAN_POINT ( 'NONE',  ( 500.0000000000000000, 250.0000000000000000, 3.000000000000000000 ) ) ;
#84 = UNCERTAINTY_MEASURE_WITH_UNIT (LENGTH_MEASURE( 1.000000000000000100E-005 ), #97, 'distance_accuracy_value', 'NONE');
#85 = CARTESIAN_POINT ( 'NONE',  ( 500.0000000000000000, -250.0000000000000000, 3.000000000000000000 ) ) ;
#86 = DIRECTION ( 'NONE',  ( 1.000000000000000000, 0.0000000000000000000, 0.0000000000000000000 ) ) ;
#87 = EDGE_LOOP ( 'NONE', ( #219, #11, #116, #105 ) ) ;
#88 = EDGE_CURVE ( 'NONE', #52, #66, #181, .T. ) ;
#89 = VERTEX_POINT ( 'NONE', #41 ) ;
#90 = PRODUCT_DEFINITION ( 'UNKNOWN', '', #160, #205 ) ;
#91 = PLANE ( 'NONE',  #69 ) ;
#92 = COLOUR_RGB ( '',0.7529411764705882200, 0.7529411764705882200, 0.7529411764705882200 ) ;
#93 = LINE ( 'NONE', #39, #128 ) ;
#94 = ADVANCED_FACE ( 'NONE', ( #126 ), #163, .T. ) ;
#95 =( NAMED_UNIT ( * ) SI_UNIT ( $, .STERADIAN. ) SOLID_ANGLE_UNIT ( ) );
#96 = FILL_AREA_STYLE ('',( #26 ) ) ;
#97 =( LENGTH_UNIT ( ) NAMED_UNIT ( * ) SI_UNIT ( .MILLI., .METRE. ) );
#98 = EDGE_CURVE ( 'NONE', #152, #89, #32, .T. ) ;
#99 = ORIENTED_EDGE ( 'NONE', *, *, #187, .T. ) ;
#100 = CARTESIAN_POINT ( 'NONE',  ( -500.0000000000000000, -250.0000000000000000, 0.0000000000000000000 ) ) ;
#101 = SURFACE_SIDE_STYLE ('',( #51 ) ) ;
#102 = DIRECTION ( 'NONE',  ( -1.000000000000000000, -0.0000000000000000000, 0.0000000000000000000 ) ) ;
#103 = DIRECTION ( 'NONE',  ( -0.0000000000000000000, 0.0000000000000000000, 1.000000000000000000 ) ) ;
#104 = DIRECTION ( 'NONE',  ( 0.0000000000000000000, 0.0000000000000000000, 1.000000000000000000 ) ) ;
#105 = ORIENTED_EDGE ( 'NONE', *, *, #162, .F. ) ;
#106 = VECTOR ( 'NONE', #103, 1000.000000000000000 ) ;
#107 = UNCERTAINTY_MEASURE_WITH_UNIT (LENGTH_MEASURE( 1.000000000000000100E-005 ), #56, 'distance_accuracy_value', 'NONE');
#108 = VERTEX_POINT ( 'NONE', #114 ) ;
#109 = MECHANICAL_DESIGN_GEOMETRIC_PRESENTATION_REPRESENTATION (  '', ( #220 ), #122 ) ;
#110 = ORIENTED_EDGE ( 'NONE', *, *, #130, .F. ) ;
#111 = EDGE_CURVE ( 'NONE', #197, #152, #7, .T. ) ;
#112 = EDGE_CURVE ( 'NONE', #89, #108, #186, .T. ) ;
#113 = AXIS2_PLACEMENT_3D ( 'NONE', #18, #35, #86 ) ;
#114 = CARTESIAN_POINT ( 'NONE',  ( -500.0000000000000000, 250.0000000000000000, 0.0000000000000000000 ) ) ;
#115 = EDGE_CURVE ( 'NONE', #89, #164, #207, .T. ) ;
#116 = ORIENTED_EDGE ( 'NONE', *, *, #111, .F. ) ;
#117 = CARTESIAN_POINT ( 'NONE',  ( -500.0000000000000000, 250.0000000000000000, 3.000000000000000000 ) ) ;
#118 =( NAMED_UNIT ( * ) PLANE_ANGLE_UNIT ( ) SI_UNIT ( $, .RADIAN. ) );
#119 = FILL_AREA_STYLE_COLOUR ( '', #222 ) ;
#120 = SURFACE_SIDE_STYLE ('',( #226 ) ) ;
#121 = VECTOR ( 'NONE', #25, 1000.000000000000000 ) ;
#122 =( GEOMETRIC_REPRESENTATION_CONTEXT ( 3 ) GLOBAL_UNCERTAINTY_ASSIGNED_CONTEXT ( ( #84 ) ) GLOBAL_UNIT_ASSIGNED_CONTEXT ( ( #97, #118, #12 ) ) REPRESENTATION_CONTEXT ( 'NONE', 'WORKASPACE' ) );
#123 = DIRECTION ( 'NONE',  ( 0.0000000000000000000, -0.0000000000000000000, -1.000000000000000000 ) ) ;
#124 = CARTESIAN_POINT ( 'NONE',  ( 500.0000000000000000, 250.0000000000000000, 3.000000000000000000 ) ) ;
#125 = ORIENTED_EDGE ( 'NONE', *, *, #198, .F. ) ;
#126 = FACE_OUTER_BOUND ( 'NONE', #76, .T. ) ;
#127 =( GEOMETRIC_REPRESENTATION_CONTEXT ( 3 ) GLOBAL_UNCERTAINTY_ASSIGNED_CONTEXT ( ( #139 ) ) GLOBAL_UNIT_ASSIGNED_CONTEXT ( ( #58, #13, #42 ) ) REPRESENTATION_CONTEXT ( 'NONE', 'WORKASPACE' ) );
#128 = VECTOR ( 'NONE', #177, 1000.000000000000000 ) ;
#129 = ORIENTED_EDGE ( 'NONE', *, *, #9, .T. ) ;
#130 = EDGE_CURVE ( 'NONE', #55, #164, #158, .T. ) ;
#131 = FACE_OUTER_BOUND ( 'NONE', #203, .T. ) ;
#132 = VECTOR ( 'NONE', #102, 1000.000000000000000 ) ;
#133 = AXIS2_PLACEMENT_3D ( 'NONE', #2, #1, #182 ) ;
#134 = CARTESIAN_POINT ( 'NONE',  ( -500.0000000000000000, 250.0000000000000000, 3.000000000000000000 ) ) ;
#135 = VECTOR ( 'NONE', #193, 1000.000000000000000 ) ;
#136 = ORIENTED_EDGE ( 'NONE', *, *, #115, .F. ) ;
#137 = FILL_AREA_STYLE ('',( #27 ) ) ;
#138 = PLANE ( 'NONE',  #148 ) ;
#139 = UNCERTAINTY_MEASURE_WITH_UNIT (LENGTH_MEASURE( 1.000000000000000100E-005 ), #58, 'distance_accuracy_value', 'NONE');
#140 = LINE ( 'NONE', #214, #135 ) ;
#141 = CARTESIAN_POINT ( 'NONE',  ( -500.0000000000000000, -250.0000000000000000, 3.000000000000000000 ) ) ;
#142 =( LENGTH_UNIT ( ) NAMED_UNIT ( * ) SI_UNIT ( .MILLI., .METRE. ) );
#143 = CARTESIAN_POINT ( 'NONE',  ( -500.0000000000000000, 250.0000000000000000, 3.000000000000000000 ) ) ;
#144 = STYLED_ITEM ( 'NONE', ( #172 ), #67 ) ;
#145 = COLOUR_RGB ( '',1.000000000000000000, 1.000000000000000000, 1.000000000000000000 ) ;
#146 = EDGE_LOOP ( 'NONE', ( #208, #110, #173, #169 ) ) ;
#147 = CARTESIAN_POINT ( 'NONE',  ( -500.0000000000000000, -250.0000000000000000, 0.0000000000000000000 ) ) ;
#148 = AXIS2_PLACEMENT_3D ( 'NONE', #100, #24, #161 ) ;
#149 = CARTESIAN_POINT ( 'NONE',  ( -500.0000000000000000, -250.0000000000000000, 0.0000000000000000000 ) ) ;
#150 = DIRECTION ( 'NONE',  ( -0.0000000000000000000, -0.0000000000000000000, 1.000000000000000000 ) ) ;
#151 = LINE ( 'NONE', #44, #156 ) ;
#152 = VERTEX_POINT ( 'NONE', #82 ) ;
#153 = VECTOR ( 'NONE', #19, 1000.000000000000000 ) ;
#154 = COLOUR_RGB ( '',1.000000000000000000, 1.000000000000000000, 1.000000000000000000 ) ;
#155 = MECHANICAL_DESIGN_GEOMETRIC_PRESENTATION_REPRESENTATION (  '', ( #206 ), #209 ) ;
#156 = VECTOR ( 'NONE', #183, 1000.000000000000000 ) ;
#157 = ORIENTED_EDGE ( 'NONE', *, *, #73, .T. ) ;
#158 = LINE ( 'NONE', #85, #36 ) ;
#159 = EDGE_LOOP ( 'NONE', ( #174, #6, #136, #232 ) ) ;
#160 = PRODUCT_DEFINITION_FORMATION_WITH_SPECIFIED_SOURCE ( 'ANY', '', #204, .NOT_KNOWN. ) ;
#161 = DIRECTION ( 'NONE',  ( 1.000000000000000000, 0.0000000000000000000, -0.0000000000000000000 ) ) ;
#162 = EDGE_CURVE ( 'NONE', #108, #197, #5, .T. ) ;
#163 = PLANE ( 'NONE',  #178 ) ;
#164 = VERTEX_POINT ( 'NONE', #165 ) ;
#165 = CARTESIAN_POINT ( 'NONE',  ( 500.0000000000000000, 250.0000000000000000, 3.000000000000000000 ) ) ;
#166 = EDGE_CURVE ( 'NONE', #108, #52, #22, .T. ) ;
#167 =( LENGTH_UNIT ( ) NAMED_UNIT ( * ) SI_UNIT ( .MILLI., .METRE. ) );
#168 = CARTESIAN_POINT ( 'NONE',  ( -500.0000000000000000, -250.0000000000000000, 0.0000000000000000000 ) ) ;
#169 = ORIENTED_EDGE ( 'NONE', *, *, #98, .T. ) ;
#170 =( NAMED_UNIT ( * ) SI_UNIT ( $, .STERADIAN. ) SOLID_ANGLE_UNIT ( ) );
#171 =( NAMED_UNIT ( * ) SI_UNIT ( $, .STERADIAN. ) SOLID_ANGLE_UNIT ( ) );
#172 = PRESENTATION_STYLE_ASSIGNMENT (( #74 ) ) ;
#173 = ORIENTED_EDGE ( 'NONE', *, *, #73, .F. ) ;
#174 = ORIENTED_EDGE ( 'NONE', *, *, #166, .T. ) ;
#175 = ADVANCED_FACE ( 'NONE', ( #131 ), #30, .F. ) ;
#176 = FACE_OUTER_BOUND ( 'NONE', #210, .T. ) ;
#177 = DIRECTION ( 'NONE',  ( 0.0000000000000000000, 0.0000000000000000000, 1.000000000000000000 ) ) ;
#178 = AXIS2_PLACEMENT_3D ( 'NONE', #68, #104, #46 ) ;
#179 =( NAMED_UNIT ( * ) PLANE_ANGLE_UNIT ( ) SI_UNIT ( $, .RADIAN. ) );
#180 = DIRECTION ( 'NONE',  ( -1.000000000000000000, 0.0000000000000000000, 0.0000000000000000000 ) ) ;
#181 = LINE ( 'NONE', #62, #121 ) ;
#182 = DIRECTION ( 'NONE',  ( 0.0000000000000000000, -0.0000000000000000000, 1.000000000000000000 ) ) ;
#183 = DIRECTION ( 'NONE',  ( 1.000000000000000000, 0.0000000000000000000, -0.0000000000000000000 ) ) ;
#184 =( GEOMETRIC_REPRESENTATION_CONTEXT ( 3 ) GLOBAL_UNCERTAINTY_ASSIGNED_CONTEXT ( ( #40 ) ) GLOBAL_UNIT_ASSIGNED_CONTEXT ( ( #167, #31, #170 ) ) REPRESENTATION_CONTEXT ( 'NONE', 'WORKASPACE' ) );
#185 = DIRECTION ( 'NONE',  ( -1.000000000000000000, -0.0000000000000000000, -0.0000000000000000000 ) ) ;
#186 = LINE ( 'NONE', #47, #132 ) ;
#187 = EDGE_CURVE ( 'NONE', #164, #52, #202, .T. ) ;
#188 = ORIENTED_EDGE ( 'NONE', *, *, #162, .T. ) ;
#189 = MECHANICAL_DESIGN_GEOMETRIC_PRESENTATION_REPRESENTATION (  '', ( #144 ), #201 ) ;
#190 =( NAMED_UNIT ( * ) PLANE_ANGLE_UNIT ( ) SI_UNIT ( $, .RADIAN. ) );
#191 = FACE_OUTER_BOUND ( 'NONE', #146, .T. ) ;
#192 = PRESENTATION_LAYER_ASSIGNMENT (  '', '', ( #144 ) ) ;
#193 = DIRECTION ( 'NONE',  ( 0.0000000000000000000, 0.0000000000000000000, -1.000000000000000000 ) ) ;
#194 = ORIENTED_EDGE ( 'NONE', *, *, #9, .F. ) ;
#195 = PLANE ( 'NONE',  #38 ) ;
#196 = SURFACE_STYLE_FILL_AREA ( #137 ) ;
#197 = VERTEX_POINT ( 'NONE', #168 ) ;
#198 = EDGE_CURVE ( 'NONE', #66, #55, #151, .T. ) ;
#199 = DIRECTION ( 'NONE',  ( 1.000000000000000000, 0.0000000000000000000, -0.0000000000000000000 ) ) ;
#200 = CARTESIAN_POINT ( 'NONE',  ( 500.0000000000000000, -250.0000000000000000, 0.0000000000000000000 ) ) ;
#201 =( GEOMETRIC_REPRESENTATION_CONTEXT ( 3 ) GLOBAL_UNCERTAINTY_ASSIGNED_CONTEXT ( ( #107 ) ) GLOBAL_UNIT_ASSIGNED_CONTEXT ( ( #56, #190, #171 ) ) REPRESENTATION_CONTEXT ( 'NONE', 'WORKASPACE' ) );
#202 = LINE ( 'NONE', #231, #37 ) ;
#203 = EDGE_LOOP ( 'NONE', ( #157, #125, #129, #223 ) ) ;
#204 = PRODUCT ( '6520248_CNAJF00', '6520248_CNAJF00', '', ( #72 ) ) ;
#205 = PRODUCT_DEFINITION_CONTEXT ( 'detailed design', #49, 'design' ) ;
#206 = STYLED_ITEM ( 'NONE', ( #230 ), #70 ) ;
#207 = LINE ( 'NONE', #124, #106 ) ;
#208 = ORIENTED_EDGE ( 'NONE', *, *, #115, .T. ) ;
#209 =( GEOMETRIC_REPRESENTATION_CONTEXT ( 3 ) GLOBAL_UNCERTAINTY_ASSIGNED_CONTEXT ( ( #20 ) ) GLOBAL_UNIT_ASSIGNED_CONTEXT ( ( #142, #179, #95 ) ) REPRESENTATION_CONTEXT ( 'NONE', 'WORKASPACE' ) );
#210 = EDGE_LOOP ( 'NONE', ( #194, #48, #16, #188 ) ) ;
#211 = VECTOR ( 'NONE', #79, 1000.000000000000000 ) ;
#212 = STYLED_ITEM ( 'NONE', ( #34 ), #33 ) ;
#213 = ORIENTED_EDGE ( 'NONE', *, *, #130, .T. ) ;
#214 = CARTESIAN_POINT ( 'NONE',  ( -500.0000000000000000, -250.0000000000000000, 3.000000000000000000 ) ) ;
#215 = SURFACE_SIDE_STYLE ('',( #196 ) ) ;
#216 = VECTOR ( 'NONE', #150, 1000.000000000000000 ) ;
#217 = ORIENTED_EDGE ( 'NONE', *, *, #88, .T. ) ;
#218 = FILL_AREA_STYLE_COLOUR ( '', #92 ) ;
#219 = ORIENTED_EDGE ( 'NONE', *, *, #112, .F. ) ;
#220 = STYLED_ITEM ( 'NONE', ( #29 ), #94 ) ;
#221 = PRESENTATION_LAYER_ASSIGNMENT (  '', '', ( #206 ) ) ;
#222 = COLOUR_RGB ( '',0.6274509803921568500, 0.8352941176470588500, 1.000000000000000000 ) ;
#223 = ORIENTED_EDGE ( 'NONE', *, *, #111, .T. ) ;
#224 = PRESENTATION_LAYER_ASSIGNMENT (  '', '', ( #220 ) ) ;
#225 = ADVANCED_FACE ( 'NONE', ( #28 ), #15, .F. ) ;
#226 = SURFACE_STYLE_FILL_AREA ( #96 ) ;
#227 = FILL_AREA_STYLE ('',( #119 ) ) ;
#228 = SURFACE_STYLE_USAGE ( .BOTH. , #120 ) ;
#229 = SURFACE_STYLE_USAGE ( .BOTH. , #101 ) ;
#230 = PRESENTATION_STYLE_ASSIGNMENT (( #14 ) ) ;
#231 = CARTESIAN_POINT ( 'NONE',  ( 500.0000000000000000, 250.0000000000000000, 3.000000000000000000 ) ) ;
#232 = ORIENTED_EDGE ( 'NONE', *, *, #112, .T. ) ;
ENDSEC;
END-ISO-10303-21;
