ISO-10303-21;
HEADER;
FILE_DESCRIPTION (( 'STEP AP214' ),
    '1' );
FILE_NAME ('6520268',
    '2019-02-01T12:48:43',
    ( '' ),
    ('JUGARD+KÜNSTNER GmbH'),
    'SwSTEP 2.0',
    'SolidWorks 2017',
    '' );
FILE_SCHEMA (( 'AUTOMOTIVE_DESIGN' ));
ENDSEC;

DATA;
#1 = VECTOR ( 'NONE', #125, 1000.000000000000000 ) ;
#2 = AXIS2_PLACEMENT_3D ( 'NONE', #85, #31, #198 ) ;
#3 = ORIENTED_EDGE ( 'NONE', *, *, #36, .F. ) ;
#4 = EDGE_CURVE ( 'NONE', #124, #71, #87, .T. ) ;
#5 = COLOUR_RGB ( '',0.7529411764705882200, 0.7529411764705882200, 0.7529411764705882200 ) ;
#6 = CARTESIAN_POINT ( 'NONE',  ( -500.0000000000000000, -250.0000000000000000, 3.000000000000000000 ) ) ;
#7 = VECTOR ( 'NONE', #59, 1000.000000000000000 ) ;
#8 = EDGE_LOOP ( 'NONE', ( #201, #57, #32, #193 ) ) ;
#9 = CARTESIAN_POINT ( 'NONE',  ( -500.0000000000000000, -250.0000000000000000, 3.000000000000000000 ) ) ;
#10 = PLANE ( 'NONE',  #163 ) ;
#11 = CARTESIAN_POINT ( 'NONE',  ( 500.0000000000000000, -250.0000000000000000, 3.000000000000000000 ) ) ;
#12 = PLANE ( 'NONE',  #2 ) ;
#13 = EDGE_CURVE ( 'NONE', #84, #111, #165, .T. ) ;
#14 = VERTEX_POINT ( 'NONE', #55 ) ;
#15 = FACE_OUTER_BOUND ( 'NONE', #8, .T. ) ;
#16 = UNCERTAINTY_MEASURE_WITH_UNIT (LENGTH_MEASURE( 1.000000000000000100E-005 ), #109, 'distance_accuracy_value', 'NONE');
#17 = ORIENTED_EDGE ( 'NONE', *, *, #67, .T. ) ;
#18 = PRODUCT_DEFINITION_CONTEXT ( 'detailed design', #200, 'design' ) ;
#19 = ORIENTED_EDGE ( 'NONE', *, *, #115, .T. ) ;
#20 = CARTESIAN_POINT ( 'NONE',  ( -500.0000000000000000, -250.0000000000000000, 0.0000000000000000000 ) ) ;
#21 = DIRECTION ( 'NONE',  ( 1.000000000000000000, 0.0000000000000000000, -0.0000000000000000000 ) ) ;
#22 = DIRECTION ( 'NONE',  ( 0.0000000000000000000, 0.0000000000000000000, 1.000000000000000000 ) ) ;
#23 = ORIENTED_EDGE ( 'NONE', *, *, #88, .F. ) ;
#24 = CARTESIAN_POINT ( 'NONE',  ( -500.0000000000000000, 250.0000000000000000, 0.0000000000000000000 ) ) ;
#25 = DIRECTION ( 'NONE',  ( 1.000000000000000000, 0.0000000000000000000, -0.0000000000000000000 ) ) ;
#26 = FILL_AREA_STYLE ('',( #49 ) ) ;
#27 = VECTOR ( 'NONE', #190, 1000.000000000000000 ) ;
#28 = ORIENTED_EDGE ( 'NONE', *, *, #4, .T. ) ;
#29 = AXIS2_PLACEMENT_3D ( 'NONE', #181, #120, #25 ) ;
#30 =( NAMED_UNIT ( * ) PLANE_ANGLE_UNIT ( ) SI_UNIT ( $, .RADIAN. ) );
#31 = DIRECTION ( 'NONE',  ( 0.0000000000000000000, 1.000000000000000000, 0.0000000000000000000 ) ) ;
#32 = ORIENTED_EDGE ( 'NONE', *, *, #101, .T. ) ;
#33 =( NAMED_UNIT ( * ) PLANE_ANGLE_UNIT ( ) SI_UNIT ( $, .RADIAN. ) );
#34 = LINE ( 'NONE', #156, #27 ) ;
#35 = ORIENTED_EDGE ( 'NONE', *, *, #36, .T. ) ;
#36 = EDGE_CURVE ( 'NONE', #175, #124, #160, .T. ) ;
#37 = CARTESIAN_POINT ( 'NONE',  ( -500.0000000000000000, 250.0000000000000000, 3.000000000000000000 ) ) ;
#38 = LINE ( 'NONE', #137, #176 ) ;
#39 = PRESENTATION_STYLE_ASSIGNMENT (( #92 ) ) ;
#40 =( GEOMETRIC_REPRESENTATION_CONTEXT ( 3 ) GLOBAL_UNCERTAINTY_ASSIGNED_CONTEXT ( ( #72 ) ) GLOBAL_UNIT_ASSIGNED_CONTEXT ( ( #184, #30, #68 ) ) REPRESENTATION_CONTEXT ( 'NONE', 'WORKASPACE' ) );
#41 = ORIENTED_EDGE ( 'NONE', *, *, #69, .F. ) ;
#42 = CARTESIAN_POINT ( 'NONE',  ( 500.0000000000000000, -250.0000000000000000, 3.000000000000000000 ) ) ;
#43 =( NAMED_UNIT ( * ) SI_UNIT ( $, .STERADIAN. ) SOLID_ANGLE_UNIT ( ) );
#44 = MANIFOLD_SOLID_BREP ( 'Importiert1', #96 ) ;
#45 = DIRECTION ( 'NONE',  ( -1.000000000000000000, -0.0000000000000000000, 0.0000000000000000000 ) ) ;
#46 = VECTOR ( 'NONE', #154, 1000.000000000000000 ) ;
#47 = CARTESIAN_POINT ( 'NONE',  ( 500.0000000000000000, -250.0000000000000000, 3.000000000000000000 ) ) ;
#48 = DIRECTION ( 'NONE',  ( -1.000000000000000000, 0.0000000000000000000, 0.0000000000000000000 ) ) ;
#49 = FILL_AREA_STYLE_COLOUR ( '', #5 ) ;
#50 = FACE_OUTER_BOUND ( 'NONE', #162, .T. ) ;
#51 = ORIENTED_EDGE ( 'NONE', *, *, #13, .F. ) ;
#52 = EDGE_CURVE ( 'NONE', #14, #84, #74, .T. ) ;
#53 = EDGE_LOOP ( 'NONE', ( #170, #17, #35, #28 ) ) ;
#54 = VECTOR ( 'NONE', #178, 1000.000000000000000 ) ;
#55 = CARTESIAN_POINT ( 'NONE',  ( 500.0000000000000000, 250.0000000000000000, 0.0000000000000000000 ) ) ;
#56 = DIRECTION ( 'NONE',  ( 0.0000000000000000000, -1.000000000000000000, -0.0000000000000000000 ) ) ;
#57 = ORIENTED_EDGE ( 'NONE', *, *, #4, .F. ) ;
#58 = PLANE ( 'NONE',  #29 ) ;
#59 = DIRECTION ( 'NONE',  ( 0.0000000000000000000, 0.0000000000000000000, 1.000000000000000000 ) ) ;
#60 = LINE ( 'NONE', #194, #140 ) ;
#61 = CARTESIAN_POINT ( 'NONE',  ( -500.0000000000000000, -250.0000000000000000, 0.0000000000000000000 ) ) ;
#62 = DIRECTION ( 'NONE',  ( 0.0000000000000000000, 0.0000000000000000000, 1.000000000000000000 ) ) ;
#63 = SHAPE_DEFINITION_REPRESENTATION ( #110, #174 ) ;
#64 = ORIENTED_EDGE ( 'NONE', *, *, #115, .F. ) ;
#65 = DIRECTION ( 'NONE',  ( 1.000000000000000000, 0.0000000000000000000, 0.0000000000000000000 ) ) ;
#66 = CARTESIAN_POINT ( 'NONE',  ( 500.0000000000000000, -250.0000000000000000, 0.0000000000000000000 ) ) ;
#67 = EDGE_CURVE ( 'NONE', #75, #175, #182, .T. ) ;
#68 =( NAMED_UNIT ( * ) SI_UNIT ( $, .STERADIAN. ) SOLID_ANGLE_UNIT ( ) );
#69 = EDGE_CURVE ( 'NONE', #14, #75, #121, .T. ) ;
#70 = VECTOR ( 'NONE', #80, 1000.000000000000000 ) ;
#71 = VERTEX_POINT ( 'NONE', #47 ) ;
#72 = UNCERTAINTY_MEASURE_WITH_UNIT (LENGTH_MEASURE( 1.000000000000000100E-005 ), #184, 'distance_accuracy_value', 'NONE');
#73 = FACE_OUTER_BOUND ( 'NONE', #118, .T. ) ;
#74 = LINE ( 'NONE', #24, #141 ) ;
#75 = VERTEX_POINT ( 'NONE', #168 ) ;
#76 = ADVANCED_FACE ( 'NONE', ( #151 ), #78, .F. ) ;
#77 = STYLED_ITEM ( 'NONE', ( #39 ), #44 ) ;
#78 = PLANE ( 'NONE',  #117 ) ;
#79 = ORIENTED_EDGE ( 'NONE', *, *, #69, .T. ) ;
#80 = DIRECTION ( 'NONE',  ( 0.0000000000000000000, 1.000000000000000000, -0.0000000000000000000 ) ) ;
#81 = DIRECTION ( 'NONE',  ( -0.0000000000000000000, 0.0000000000000000000, 1.000000000000000000 ) ) ;
#82 = FILL_AREA_STYLE ('',( #100 ) ) ;
#83 = CARTESIAN_POINT ( 'NONE',  ( -500.0000000000000000, 250.0000000000000000, 3.000000000000000000 ) ) ;
#84 = VERTEX_POINT ( 'NONE', #104 ) ;
#85 = CARTESIAN_POINT ( 'NONE',  ( -500.0000000000000000, -250.0000000000000000, 3.000000000000000000 ) ) ;
#86 = FACE_OUTER_BOUND ( 'NONE', #167, .T. ) ;
#87 = LINE ( 'NONE', #6, #89 ) ;
#88 = EDGE_CURVE ( 'NONE', #111, #183, #60, .T. ) ;
#89 = VECTOR ( 'NONE', #128, 1000.000000000000000 ) ;
#90 = AXIS2_PLACEMENT_3D ( 'NONE', #199, #48, #62 ) ;
#91 = PRESENTATION_STYLE_ASSIGNMENT (( #196 ) ) ;
#92 = SURFACE_STYLE_USAGE ( .BOTH. , #136 ) ;
#93 =( NAMED_UNIT ( * ) PLANE_ANGLE_UNIT ( ) SI_UNIT ( $, .RADIAN. ) );
#94 = CARTESIAN_POINT ( 'NONE',  ( -500.0000000000000000, 250.0000000000000000, 3.000000000000000000 ) ) ;
#95 = CARTESIAN_POINT ( 'NONE',  ( 0.0000000000000000000, 0.0000000000000000000, 0.0000000000000000000 ) ) ;
#96 = CLOSED_SHELL ( 'NONE', ( #129, #164, #76, #149, #191, #116 ) ) ;
#97 = APPLICATION_CONTEXT ( 'automotive_design' ) ;
#98 = PRESENTATION_LAYER_ASSIGNMENT (  '', '', ( #77 ) ) ;
#99 = VECTOR ( 'NONE', #81, 1000.000000000000000 ) ;
#100 = FILL_AREA_STYLE_COLOUR ( '', #147 ) ;
#101 = EDGE_CURVE ( 'NONE', #124, #111, #34, .T. ) ;
#102 = ORIENTED_EDGE ( 'NONE', *, *, #52, .T. ) ;
#103 = EDGE_CURVE ( 'NONE', #71, #75, #180, .T. ) ;
#104 = CARTESIAN_POINT ( 'NONE',  ( -500.0000000000000000, 250.0000000000000000, 0.0000000000000000000 ) ) ;
#105 = FACE_OUTER_BOUND ( 'NONE', #53, .T. ) ;
#106 = DIRECTION ( 'NONE',  ( 0.0000000000000000000, -1.000000000000000000, 0.0000000000000000000 ) ) ;
#107 = PRODUCT_CONTEXT ( 'NONE', #97, 'mechanical' ) ;
#108 = SURFACE_STYLE_FILL_AREA ( #26 ) ;
#109 =( LENGTH_UNIT ( ) NAMED_UNIT ( * ) SI_UNIT ( .MILLI., .METRE. ) );
#110 = PRODUCT_DEFINITION_SHAPE ( 'NONE', 'NONE',  #138 ) ;
#111 = VERTEX_POINT ( 'NONE', #61 ) ;
#112 = MECHANICAL_DESIGN_GEOMETRIC_PRESENTATION_REPRESENTATION (  '', ( #197 ), #40 ) ;
#113 = MECHANICAL_DESIGN_GEOMETRIC_PRESENTATION_REPRESENTATION (  '', ( #77 ), #130 ) ;
#114 = PRESENTATION_LAYER_ASSIGNMENT (  '', '', ( #197 ) ) ;
#115 = EDGE_CURVE ( 'NONE', #84, #175, #38, .T. ) ;
#116 = ADVANCED_FACE ( 'NONE', ( #105 ), #58, .T. ) ;
#117 = AXIS2_PLACEMENT_3D ( 'NONE', #155, #106, #169 ) ;
#118 = EDGE_LOOP ( 'NONE', ( #79, #131, #127, #186 ) ) ;
#119 = CARTESIAN_POINT ( 'NONE',  ( -500.0000000000000000, -250.0000000000000000, 0.0000000000000000000 ) ) ;
#120 = DIRECTION ( 'NONE',  ( 0.0000000000000000000, 0.0000000000000000000, 1.000000000000000000 ) ) ;
#121 = LINE ( 'NONE', #192, #99 ) ;
#122 = CARTESIAN_POINT ( 'NONE',  ( 500.0000000000000000, -250.0000000000000000, 0.0000000000000000000 ) ) ;
#123 = PRODUCT_DEFINITION_FORMATION_WITH_SPECIFIED_SOURCE ( 'ANY', '', #177, .NOT_KNOWN. ) ;
#124 = VERTEX_POINT ( 'NONE', #9 ) ;
#125 = DIRECTION ( 'NONE',  ( -0.0000000000000000000, 1.000000000000000000, 0.0000000000000000000 ) ) ;
#126 = ORIENTED_EDGE ( 'NONE', *, *, #13, .T. ) ;
#127 = ORIENTED_EDGE ( 'NONE', *, *, #135, .F. ) ;
#128 = DIRECTION ( 'NONE',  ( 1.000000000000000000, 0.0000000000000000000, -0.0000000000000000000 ) ) ;
#129 = ADVANCED_FACE ( 'NONE', ( #86 ), #133, .F. ) ;
#130 =( GEOMETRIC_REPRESENTATION_CONTEXT ( 3 ) GLOBAL_UNCERTAINTY_ASSIGNED_CONTEXT ( ( #148 ) ) GLOBAL_UNIT_ASSIGNED_CONTEXT ( ( #179, #93, #43 ) ) REPRESENTATION_CONTEXT ( 'NONE', 'WORKASPACE' ) );
#131 = ORIENTED_EDGE ( 'NONE', *, *, #103, .F. ) ;
#132 = ORIENTED_EDGE ( 'NONE', *, *, #52, .F. ) ;
#133 = PLANE ( 'NONE',  #157 ) ;
#134 = DIRECTION ( 'NONE',  ( 1.000000000000000000, 0.0000000000000000000, -0.0000000000000000000 ) ) ;
#135 = EDGE_CURVE ( 'NONE', #183, #71, #146, .T. ) ;
#136 = SURFACE_SIDE_STYLE ('',( #173 ) ) ;
#137 = CARTESIAN_POINT ( 'NONE',  ( -500.0000000000000000, 250.0000000000000000, 3.000000000000000000 ) ) ;
#138 = PRODUCT_DEFINITION ( 'UNKNOWN', '', #123, #18 ) ;
#139 = APPLICATION_PROTOCOL_DEFINITION ( 'draft international standard', 'automotive_design', 1998, #200 ) ;
#140 = VECTOR ( 'NONE', #21, 1000.000000000000000 ) ;
#141 = VECTOR ( 'NONE', #45, 1000.000000000000000 ) ;
#142 = DIRECTION ( 'NONE',  ( 1.000000000000000000, 0.0000000000000000000, 0.0000000000000000000 ) ) ;
#143 = PLANE ( 'NONE',  #90 ) ;
#144 = SURFACE_SIDE_STYLE ('',( #108 ) ) ;
#145 = LINE ( 'NONE', #66, #1 ) ;
#146 = LINE ( 'NONE', #42, #7 ) ;
#147 = COLOUR_RGB ( '',1.000000000000000000, 1.000000000000000000, 1.000000000000000000 ) ;
#148 = UNCERTAINTY_MEASURE_WITH_UNIT (LENGTH_MEASURE( 1.000000000000000100E-005 ), #179, 'distance_accuracy_value', 'NONE');
#149 = ADVANCED_FACE ( 'NONE', ( #73 ), #143, .F. ) ;
#150 = AXIS2_PLACEMENT_3D ( 'NONE', #95, #172, #65 ) ;
#151 = FACE_OUTER_BOUND ( 'NONE', #153, .T. ) ;
#152 = ORIENTED_EDGE ( 'NONE', *, *, #101, .F. ) ;
#153 = EDGE_LOOP ( 'NONE', ( #19, #188, #41, #102 ) ) ;
#154 = DIRECTION ( 'NONE',  ( 0.0000000000000000000, -1.000000000000000000, -0.0000000000000000000 ) ) ;
#155 = CARTESIAN_POINT ( 'NONE',  ( 500.0000000000000000, 250.0000000000000000, 3.000000000000000000 ) ) ;
#156 = CARTESIAN_POINT ( 'NONE',  ( -500.0000000000000000, -250.0000000000000000, 3.000000000000000000 ) ) ;
#157 = AXIS2_PLACEMENT_3D ( 'NONE', #119, #22, #134 ) ;
#158 = DIRECTION ( 'NONE',  ( -0.0000000000000000000, -0.0000000000000000000, 1.000000000000000000 ) ) ;
#159 = DIRECTION ( 'NONE',  ( 0.0000000000000000000, 0.0000000000000000000, -1.000000000000000000 ) ) ;
#160 = LINE ( 'NONE', #37, #187 ) ;
#161 = APPLICATION_PROTOCOL_DEFINITION ( 'draft international standard', 'automotive_design', 1998, #97 ) ;
#162 = EDGE_LOOP ( 'NONE', ( #152, #3, #64, #126 ) ) ;
#163 = AXIS2_PLACEMENT_3D ( 'NONE', #94, #142, #159 ) ;
#164 = ADVANCED_FACE ( 'NONE', ( #50 ), #10, .F. ) ;
#165 = LINE ( 'NONE', #20, #46 ) ;
#166 = CARTESIAN_POINT ( 'NONE',  ( 500.0000000000000000, 250.0000000000000000, 3.000000000000000000 ) ) ;
#167 = EDGE_LOOP ( 'NONE', ( #132, #202, #23, #51 ) ) ;
#168 = CARTESIAN_POINT ( 'NONE',  ( 500.0000000000000000, 250.0000000000000000, 3.000000000000000000 ) ) ;
#169 = DIRECTION ( 'NONE',  ( 0.0000000000000000000, -0.0000000000000000000, -1.000000000000000000 ) ) ;
#170 = ORIENTED_EDGE ( 'NONE', *, *, #103, .T. ) ;
#171 =( NAMED_UNIT ( * ) SI_UNIT ( $, .STERADIAN. ) SOLID_ANGLE_UNIT ( ) );
#172 = DIRECTION ( 'NONE',  ( 0.0000000000000000000, 0.0000000000000000000, 1.000000000000000000 ) ) ;
#173 = SURFACE_STYLE_FILL_AREA ( #82 ) ;
#174 = ADVANCED_BREP_SHAPE_REPRESENTATION ( '6520268_CNAJF00', ( #44, #150 ), #189 ) ;
#175 = VERTEX_POINT ( 'NONE', #83 ) ;
#176 = VECTOR ( 'NONE', #158, 1000.000000000000000 ) ;
#177 = PRODUCT ( '6520268_CNAJF00', '6520268_CNAJF00', '', ( #107 ) ) ;
#178 = DIRECTION ( 'NONE',  ( -1.000000000000000000, -0.0000000000000000000, -0.0000000000000000000 ) ) ;
#179 =( LENGTH_UNIT ( ) NAMED_UNIT ( * ) SI_UNIT ( .MILLI., .METRE. ) );
#180 = LINE ( 'NONE', #11, #70 ) ;
#181 = CARTESIAN_POINT ( 'NONE',  ( -500.0000000000000000, -250.0000000000000000, 3.000000000000000000 ) ) ;
#182 = LINE ( 'NONE', #166, #54 ) ;
#183 = VERTEX_POINT ( 'NONE', #122 ) ;
#184 =( LENGTH_UNIT ( ) NAMED_UNIT ( * ) SI_UNIT ( .MILLI., .METRE. ) );
#185 = PRODUCT_RELATED_PRODUCT_CATEGORY ( 'part', '', ( #177 ) ) ;
#186 = ORIENTED_EDGE ( 'NONE', *, *, #195, .T. ) ;
#187 = VECTOR ( 'NONE', #56, 1000.000000000000000 ) ;
#188 = ORIENTED_EDGE ( 'NONE', *, *, #67, .F. ) ;
#189 =( GEOMETRIC_REPRESENTATION_CONTEXT ( 3 ) GLOBAL_UNCERTAINTY_ASSIGNED_CONTEXT ( ( #16 ) ) GLOBAL_UNIT_ASSIGNED_CONTEXT ( ( #109, #33, #171 ) ) REPRESENTATION_CONTEXT ( 'NONE', 'WORKASPACE' ) );
#190 = DIRECTION ( 'NONE',  ( 0.0000000000000000000, 0.0000000000000000000, -1.000000000000000000 ) ) ;
#191 = ADVANCED_FACE ( 'NONE', ( #15 ), #12, .F. ) ;
#192 = CARTESIAN_POINT ( 'NONE',  ( 500.0000000000000000, 250.0000000000000000, 3.000000000000000000 ) ) ;
#193 = ORIENTED_EDGE ( 'NONE', *, *, #88, .T. ) ;
#194 = CARTESIAN_POINT ( 'NONE',  ( -500.0000000000000000, -250.0000000000000000, 0.0000000000000000000 ) ) ;
#195 = EDGE_CURVE ( 'NONE', #183, #14, #145, .T. ) ;
#196 = SURFACE_STYLE_USAGE ( .BOTH. , #144 ) ;
#197 = STYLED_ITEM ( 'NONE', ( #91 ), #174 ) ;
#198 = DIRECTION ( 'NONE',  ( 0.0000000000000000000, -0.0000000000000000000, 1.000000000000000000 ) ) ;
#199 = CARTESIAN_POINT ( 'NONE',  ( 500.0000000000000000, -250.0000000000000000, 3.000000000000000000 ) ) ;
#200 = APPLICATION_CONTEXT ( 'automotive_design' ) ;
#201 = ORIENTED_EDGE ( 'NONE', *, *, #135, .T. ) ;
#202 = ORIENTED_EDGE ( 'NONE', *, *, #195, .F. ) ;
ENDSEC;
END-ISO-10303-21;
