ISO-10303-21;
HEADER;
FILE_DESCRIPTION (( 'STEP AP214' ),
    '1' );
FILE_NAME ('6520270',
    '2019-02-01T12:48:53',
    ( '' ),
    ('JUGARD+KÜNSTNER GmbH'),
    'SwSTEP 2.0',
    'SolidWorks 2017',
    '' );
FILE_SCHEMA (( 'AUTOMOTIVE_DESIGN' ));
ENDSEC;

DATA;
#1 = LINE ( 'NONE', #2, #64 ) ;
#2 = CARTESIAN_POINT ( 'NONE',  ( 1500.000000000000000, -750.0000000000000000, 3.000000000000000000 ) ) ;
#3 = PRESENTATION_LAYER_ASSIGNMENT (  '', '', ( #82 ) ) ;
#4 = VECTOR ( 'NONE', #189, 1000.000000000000000 ) ;
#5 = CARTESIAN_POINT ( 'NONE',  ( 1500.000000000000000, 750.0000000000000000, 3.000000000000000000 ) ) ;
#6 = SHAPE_DEFINITION_REPRESENTATION ( #16, #8 ) ;
#7 = ADVANCED_FACE ( 'NONE', ( #104 ), #134, .F. ) ;
#8 = ADVANCED_BREP_SHAPE_REPRESENTATION ( '6520270_CNAJF00', ( #87, #145 ), #188 ) ;
#9 = EDGE_CURVE ( 'NONE', #114, #23, #1, .T. ) ;
#10 = LINE ( 'NONE', #73, #17 ) ;
#11 = FACE_OUTER_BOUND ( 'NONE', #26, .T. ) ;
#12 = VERTEX_POINT ( 'NONE', #122 ) ;
#13 =( NAMED_UNIT ( * ) SI_UNIT ( $, .STERADIAN. ) SOLID_ANGLE_UNIT ( ) );
#14 = PLANE ( 'NONE',  #180 ) ;
#15 = CARTESIAN_POINT ( 'NONE',  ( 1500.000000000000000, 750.0000000000000000, 3.000000000000000000 ) ) ;
#16 = PRODUCT_DEFINITION_SHAPE ( 'NONE', 'NONE',  #66 ) ;
#17 = VECTOR ( 'NONE', #30, 1000.000000000000000 ) ;
#18 = ORIENTED_EDGE ( 'NONE', *, *, #190, .F. ) ;
#19 = AXIS2_PLACEMENT_3D ( 'NONE', #42, #54, #168 ) ;
#20 = CARTESIAN_POINT ( 'NONE',  ( 0.0000000000000000000, 0.0000000000000000000, 0.0000000000000000000 ) ) ;
#21 = EDGE_LOOP ( 'NONE', ( #100, #71, #18, #164 ) ) ;
#22 = APPLICATION_CONTEXT ( 'automotive_design' ) ;
#23 = VERTEX_POINT ( 'NONE', #167 ) ;
#24 = PRESENTATION_LAYER_ASSIGNMENT (  '', '', ( #79 ) ) ;
#25 = VERTEX_POINT ( 'NONE', #34 ) ;
#26 = EDGE_LOOP ( 'NONE', ( #95, #187, #52, #150 ) ) ;
#27 = EDGE_CURVE ( 'NONE', #114, #141, #49, .T. ) ;
#28 = DIRECTION ( 'NONE',  ( 0.0000000000000000000, -1.000000000000000000, -0.0000000000000000000 ) ) ;
#29 = ORIENTED_EDGE ( 'NONE', *, *, #166, .T. ) ;
#30 = DIRECTION ( 'NONE',  ( 1.000000000000000000, 0.0000000000000000000, -0.0000000000000000000 ) ) ;
#31 = EDGE_CURVE ( 'NONE', #59, #12, #175, .T. ) ;
#32 = CARTESIAN_POINT ( 'NONE',  ( -1500.000000000000000, 750.0000000000000000, 0.0000000000000000000 ) ) ;
#33 = DIRECTION ( 'NONE',  ( 0.0000000000000000000, -1.000000000000000000, -0.0000000000000000000 ) ) ;
#34 = CARTESIAN_POINT ( 'NONE',  ( 1500.000000000000000, 750.0000000000000000, 3.000000000000000000 ) ) ;
#35 =( NAMED_UNIT ( * ) SI_UNIT ( $, .STERADIAN. ) SOLID_ANGLE_UNIT ( ) );
#36 = DIRECTION ( 'NONE',  ( 0.0000000000000000000, 0.0000000000000000000, 1.000000000000000000 ) ) ;
#37 = SURFACE_SIDE_STYLE ('',( #85 ) ) ;
#38 = MECHANICAL_DESIGN_GEOMETRIC_PRESENTATION_REPRESENTATION (  '', ( #79 ), #63 ) ;
#39 = EDGE_CURVE ( 'NONE', #23, #25, #84, .T. ) ;
#40 = VECTOR ( 'NONE', #162, 1000.000000000000000 ) ;
#41 = EDGE_LOOP ( 'NONE', ( #193, #44, #171, #99 ) ) ;
#42 = CARTESIAN_POINT ( 'NONE',  ( -1500.000000000000000, 750.0000000000000000, 3.000000000000000000 ) ) ;
#43 = FACE_OUTER_BOUND ( 'NONE', #21, .T. ) ;
#44 = ORIENTED_EDGE ( 'NONE', *, *, #39, .F. ) ;
#45 = DIRECTION ( 'NONE',  ( 0.0000000000000000000, 0.0000000000000000000, 1.000000000000000000 ) ) ;
#46 = PRODUCT_RELATED_PRODUCT_CATEGORY ( 'part', '', ( #98 ) ) ;
#47 = PLANE ( 'NONE',  #184 ) ;
#48 =( LENGTH_UNIT ( ) NAMED_UNIT ( * ) SI_UNIT ( .MILLI., .METRE. ) );
#49 = LINE ( 'NONE', #154, #143 ) ;
#50 =( LENGTH_UNIT ( ) NAMED_UNIT ( * ) SI_UNIT ( .MILLI., .METRE. ) );
#51 = ORIENTED_EDGE ( 'NONE', *, *, #148, .T. ) ;
#52 = ORIENTED_EDGE ( 'NONE', *, *, #31, .T. ) ;
#53 = ADVANCED_FACE ( 'NONE', ( #86 ), #14, .F. ) ;
#54 = DIRECTION ( 'NONE',  ( 1.000000000000000000, 0.0000000000000000000, 0.0000000000000000000 ) ) ;
#55 = DIRECTION ( 'NONE',  ( -1.000000000000000000, 0.0000000000000000000, 0.0000000000000000000 ) ) ;
#56 = ORIENTED_EDGE ( 'NONE', *, *, #166, .F. ) ;
#57 = PLANE ( 'NONE',  #161 ) ;
#58 = DIRECTION ( 'NONE',  ( -0.0000000000000000000, 1.000000000000000000, 0.0000000000000000000 ) ) ;
#59 = VERTEX_POINT ( 'NONE', #76 ) ;
#60 = APPLICATION_PROTOCOL_DEFINITION ( 'draft international standard', 'automotive_design', 1998, #22 ) ;
#61 = DIRECTION ( 'NONE',  ( 1.000000000000000000, 0.0000000000000000000, -0.0000000000000000000 ) ) ;
#62 = FACE_OUTER_BOUND ( 'NONE', #147, .T. ) ;
#63 =( GEOMETRIC_REPRESENTATION_CONTEXT ( 3 ) GLOBAL_UNCERTAINTY_ASSIGNED_CONTEXT ( ( #115 ) ) GLOBAL_UNIT_ASSIGNED_CONTEXT ( ( #48, #157, #13 ) ) REPRESENTATION_CONTEXT ( 'NONE', 'WORKASPACE' ) );
#64 = VECTOR ( 'NONE', #139, 1000.000000000000000 ) ;
#65 = ORIENTED_EDGE ( 'NONE', *, *, #148, .F. ) ;
#66 = PRODUCT_DEFINITION ( 'UNKNOWN', '', #121, #94 ) ;
#67 = MECHANICAL_DESIGN_GEOMETRIC_PRESENTATION_REPRESENTATION (  '', ( #82 ), #132 ) ;
#68 = VERTEX_POINT ( 'NONE', #140 ) ;
#69 = ADVANCED_FACE ( 'NONE', ( #11 ), #47, .T. ) ;
#70 = LINE ( 'NONE', #151, #131 ) ;
#71 = ORIENTED_EDGE ( 'NONE', *, *, #116, .F. ) ;
#72 = ADVANCED_FACE ( 'NONE', ( #43 ), #186, .F. ) ;
#73 = CARTESIAN_POINT ( 'NONE',  ( -1500.000000000000000, -750.0000000000000000, 3.000000000000000000 ) ) ;
#74 = VECTOR ( 'NONE', #33, 1000.000000000000000 ) ;
#75 = DIRECTION ( 'NONE',  ( -1.000000000000000000, -0.0000000000000000000, 0.0000000000000000000 ) ) ;
#76 = CARTESIAN_POINT ( 'NONE',  ( -1500.000000000000000, 750.0000000000000000, 3.000000000000000000 ) ) ;
#77 = DIRECTION ( 'NONE',  ( 0.0000000000000000000, 1.000000000000000000, 0.0000000000000000000 ) ) ;
#78 = CARTESIAN_POINT ( 'NONE',  ( 1500.000000000000000, -750.0000000000000000, 3.000000000000000000 ) ) ;
#79 = STYLED_ITEM ( 'NONE', ( #123 ), #87 ) ;
#80 =( NAMED_UNIT ( * ) SI_UNIT ( $, .STERADIAN. ) SOLID_ANGLE_UNIT ( ) );
#81 = ORIENTED_EDGE ( 'NONE', *, *, #199, .F. ) ;
#82 = STYLED_ITEM ( 'NONE', ( #160 ), #8 ) ;
#83 = CARTESIAN_POINT ( 'NONE',  ( -1500.000000000000000, -750.0000000000000000, 0.0000000000000000000 ) ) ;
#84 = LINE ( 'NONE', #88, #130 ) ;
#85 = SURFACE_STYLE_FILL_AREA ( #195 ) ;
#86 = FACE_OUTER_BOUND ( 'NONE', #101, .T. ) ;
#87 = MANIFOLD_SOLID_BREP ( 'Importiert1', #119 ) ;
#88 = CARTESIAN_POINT ( 'NONE',  ( 1500.000000000000000, -750.0000000000000000, 3.000000000000000000 ) ) ;
#89 = LINE ( 'NONE', #128, #185 ) ;
#90 = AXIS2_PLACEMENT_3D ( 'NONE', #15, #172, #176 ) ;
#91 = CARTESIAN_POINT ( 'NONE',  ( -1500.000000000000000, -750.0000000000000000, 3.000000000000000000 ) ) ;
#92 = CARTESIAN_POINT ( 'NONE',  ( 1500.000000000000000, 750.0000000000000000, 0.0000000000000000000 ) ) ;
#93 = UNCERTAINTY_MEASURE_WITH_UNIT (LENGTH_MEASURE( 1.000000000000000100E-005 ), #50, 'distance_accuracy_value', 'NONE');
#94 = PRODUCT_DEFINITION_CONTEXT ( 'detailed design', #194, 'design' ) ;
#95 = ORIENTED_EDGE ( 'NONE', *, *, #39, .T. ) ;
#96 = DIRECTION ( 'NONE',  ( 1.000000000000000000, 0.0000000000000000000, 0.0000000000000000000 ) ) ;
#97 = VECTOR ( 'NONE', #174, 1000.000000000000000 ) ;
#98 = PRODUCT ( '6520270_CNAJF00', '6520270_CNAJF00', '', ( #179 ) ) ;
#99 = ORIENTED_EDGE ( 'NONE', *, *, #27, .T. ) ;
#100 = ORIENTED_EDGE ( 'NONE', *, *, #156, .T. ) ;
#101 = EDGE_LOOP ( 'NONE', ( #125, #113, #118, #29 ) ) ;
#102 = SURFACE_STYLE_USAGE ( .BOTH. , #126 ) ;
#103 = LINE ( 'NONE', #5, #40 ) ;
#104 = FACE_OUTER_BOUND ( 'NONE', #105, .T. ) ;
#105 = EDGE_LOOP ( 'NONE', ( #81, #152, #111, #51 ) ) ;
#106 = CARTESIAN_POINT ( 'NONE',  ( 1500.000000000000000, -750.0000000000000000, 0.0000000000000000000 ) ) ;
#107 = DIRECTION ( 'NONE',  ( 0.0000000000000000000, -0.0000000000000000000, 1.000000000000000000 ) ) ;
#108 = DIRECTION ( 'NONE',  ( 0.0000000000000000000, 1.000000000000000000, -0.0000000000000000000 ) ) ;
#109 = CARTESIAN_POINT ( 'NONE',  ( -1500.000000000000000, 750.0000000000000000, 3.000000000000000000 ) ) ;
#110 = ORIENTED_EDGE ( 'NONE', *, *, #27, .F. ) ;
#111 = ORIENTED_EDGE ( 'NONE', *, *, #156, .F. ) ;
#112 = DIRECTION ( 'NONE',  ( 0.0000000000000000000, 0.0000000000000000000, -1.000000000000000000 ) ) ;
#113 = ORIENTED_EDGE ( 'NONE', *, *, #133, .F. ) ;
#114 = VERTEX_POINT ( 'NONE', #106 ) ;
#115 = UNCERTAINTY_MEASURE_WITH_UNIT (LENGTH_MEASURE( 1.000000000000000100E-005 ), #48, 'distance_accuracy_value', 'NONE');
#116 = EDGE_CURVE ( 'NONE', #25, #59, #170, .T. ) ;
#117 = SURFACE_STYLE_FILL_AREA ( #124 ) ;
#118 = ORIENTED_EDGE ( 'NONE', *, *, #199, .T. ) ;
#119 = CLOSED_SHELL ( 'NONE', ( #183, #7, #72, #165, #53, #69 ) ) ;
#120 = CARTESIAN_POINT ( 'NONE',  ( 1500.000000000000000, 750.0000000000000000, 3.000000000000000000 ) ) ;
#121 = PRODUCT_DEFINITION_FORMATION_WITH_SPECIFIED_SOURCE ( 'ANY', '', #98, .NOT_KNOWN. ) ;
#122 = CARTESIAN_POINT ( 'NONE',  ( -1500.000000000000000, -750.0000000000000000, 3.000000000000000000 ) ) ;
#123 = PRESENTATION_STYLE_ASSIGNMENT (( #102 ) ) ;
#124 = FILL_AREA_STYLE ('',( #201 ) ) ;
#125 = ORIENTED_EDGE ( 'NONE', *, *, #9, .T. ) ;
#126 = SURFACE_SIDE_STYLE ('',( #117 ) ) ;
#127 =( NAMED_UNIT ( * ) PLANE_ANGLE_UNIT ( ) SI_UNIT ( $, .RADIAN. ) );
#128 = CARTESIAN_POINT ( 'NONE',  ( -1500.000000000000000, -750.0000000000000000, 3.000000000000000000 ) ) ;
#129 = LINE ( 'NONE', #138, #196 ) ;
#130 = VECTOR ( 'NONE', #108, 1000.000000000000000 ) ;
#131 = VECTOR ( 'NONE', #75, 1000.000000000000000 ) ;
#132 =( GEOMETRIC_REPRESENTATION_CONTEXT ( 3 ) GLOBAL_UNCERTAINTY_ASSIGNED_CONTEXT ( ( #93 ) ) GLOBAL_UNIT_ASSIGNED_CONTEXT ( ( #50, #178, #35 ) ) REPRESENTATION_CONTEXT ( 'NONE', 'WORKASPACE' ) );
#133 = EDGE_CURVE ( 'NONE', #12, #23, #10, .T. ) ;
#134 = PLANE ( 'NONE',  #19 ) ;
#135 = LINE ( 'NONE', #200, #136 ) ;
#136 = VECTOR ( 'NONE', #28, 1000.000000000000000 ) ;
#137 = EDGE_CURVE ( 'NONE', #141, #182, #70, .T. ) ;
#138 = CARTESIAN_POINT ( 'NONE',  ( -1500.000000000000000, -750.0000000000000000, 0.0000000000000000000 ) ) ;
#139 = DIRECTION ( 'NONE',  ( 0.0000000000000000000, 0.0000000000000000000, 1.000000000000000000 ) ) ;
#140 = CARTESIAN_POINT ( 'NONE',  ( -1500.000000000000000, -750.0000000000000000, 0.0000000000000000000 ) ) ;
#141 = VERTEX_POINT ( 'NONE', #92 ) ;
#142 =( LENGTH_UNIT ( ) NAMED_UNIT ( * ) SI_UNIT ( .MILLI., .METRE. ) );
#143 = VECTOR ( 'NONE', #58, 1000.000000000000000 ) ;
#144 = ORIENTED_EDGE ( 'NONE', *, *, #137, .F. ) ;
#145 = AXIS2_PLACEMENT_3D ( 'NONE', #20, #159, #96 ) ;
#146 = DIRECTION ( 'NONE',  ( 1.000000000000000000, 0.0000000000000000000, -0.0000000000000000000 ) ) ;
#147 = EDGE_LOOP ( 'NONE', ( #144, #110, #56, #65 ) ) ;
#148 = EDGE_CURVE ( 'NONE', #182, #68, #135, .T. ) ;
#149 = LINE ( 'NONE', #202, #4 ) ;
#150 = ORIENTED_EDGE ( 'NONE', *, *, #133, .T. ) ;
#151 = CARTESIAN_POINT ( 'NONE',  ( -1500.000000000000000, 750.0000000000000000, 0.0000000000000000000 ) ) ;
#152 = ORIENTED_EDGE ( 'NONE', *, *, #31, .F. ) ;
#153 = PLANE ( 'NONE',  #173 ) ;
#154 = CARTESIAN_POINT ( 'NONE',  ( 1500.000000000000000, -750.0000000000000000, 0.0000000000000000000 ) ) ;
#155 = UNCERTAINTY_MEASURE_WITH_UNIT (LENGTH_MEASURE( 1.000000000000000100E-005 ), #142, 'distance_accuracy_value', 'NONE');
#156 = EDGE_CURVE ( 'NONE', #182, #59, #149, .T. ) ;
#157 =( NAMED_UNIT ( * ) PLANE_ANGLE_UNIT ( ) SI_UNIT ( $, .RADIAN. ) );
#158 = DIRECTION ( 'NONE',  ( 0.0000000000000000000, 0.0000000000000000000, 1.000000000000000000 ) ) ;
#159 = DIRECTION ( 'NONE',  ( 0.0000000000000000000, 0.0000000000000000000, 1.000000000000000000 ) ) ;
#160 = PRESENTATION_STYLE_ASSIGNMENT (( #181 ) ) ;
#161 = AXIS2_PLACEMENT_3D ( 'NONE', #83, #36, #146 ) ;
#162 = DIRECTION ( 'NONE',  ( -0.0000000000000000000, 0.0000000000000000000, 1.000000000000000000 ) ) ;
#163 = COLOUR_RGB ( '',0.7529411764705882200, 0.7529411764705882200, 0.7529411764705882200 ) ;
#164 = ORIENTED_EDGE ( 'NONE', *, *, #137, .T. ) ;
#165 = ADVANCED_FACE ( 'NONE', ( #169 ), #153, .F. ) ;
#166 = EDGE_CURVE ( 'NONE', #68, #114, #129, .T. ) ;
#167 = CARTESIAN_POINT ( 'NONE',  ( 1500.000000000000000, -750.0000000000000000, 3.000000000000000000 ) ) ;
#168 = DIRECTION ( 'NONE',  ( 0.0000000000000000000, 0.0000000000000000000, -1.000000000000000000 ) ) ;
#169 = FACE_OUTER_BOUND ( 'NONE', #41, .T. ) ;
#170 = LINE ( 'NONE', #120, #97 ) ;
#171 = ORIENTED_EDGE ( 'NONE', *, *, #9, .F. ) ;
#172 = DIRECTION ( 'NONE',  ( 0.0000000000000000000, -1.000000000000000000, 0.0000000000000000000 ) ) ;
#173 = AXIS2_PLACEMENT_3D ( 'NONE', #78, #55, #45 ) ;
#174 = DIRECTION ( 'NONE',  ( -1.000000000000000000, -0.0000000000000000000, -0.0000000000000000000 ) ) ;
#175 = LINE ( 'NONE', #109, #74 ) ;
#176 = DIRECTION ( 'NONE',  ( 0.0000000000000000000, -0.0000000000000000000, -1.000000000000000000 ) ) ;
#177 = CARTESIAN_POINT ( 'NONE',  ( -1500.000000000000000, -750.0000000000000000, 3.000000000000000000 ) ) ;
#178 =( NAMED_UNIT ( * ) PLANE_ANGLE_UNIT ( ) SI_UNIT ( $, .RADIAN. ) );
#179 = PRODUCT_CONTEXT ( 'NONE', #22, 'mechanical' ) ;
#180 = AXIS2_PLACEMENT_3D ( 'NONE', #91, #77, #107 ) ;
#181 = SURFACE_STYLE_USAGE ( .BOTH. , #37 ) ;
#182 = VERTEX_POINT ( 'NONE', #32 ) ;
#183 = ADVANCED_FACE ( 'NONE', ( #62 ), #57, .F. ) ;
#184 = AXIS2_PLACEMENT_3D ( 'NONE', #177, #158, #191 ) ;
#185 = VECTOR ( 'NONE', #112, 1000.000000000000000 ) ;
#186 = PLANE ( 'NONE',  #90 ) ;
#187 = ORIENTED_EDGE ( 'NONE', *, *, #116, .T. ) ;
#188 =( GEOMETRIC_REPRESENTATION_CONTEXT ( 3 ) GLOBAL_UNCERTAINTY_ASSIGNED_CONTEXT ( ( #155 ) ) GLOBAL_UNIT_ASSIGNED_CONTEXT ( ( #142, #127, #80 ) ) REPRESENTATION_CONTEXT ( 'NONE', 'WORKASPACE' ) );
#189 = DIRECTION ( 'NONE',  ( -0.0000000000000000000, -0.0000000000000000000, 1.000000000000000000 ) ) ;
#190 = EDGE_CURVE ( 'NONE', #141, #25, #103, .T. ) ;
#191 = DIRECTION ( 'NONE',  ( 1.000000000000000000, 0.0000000000000000000, -0.0000000000000000000 ) ) ;
#192 = FILL_AREA_STYLE_COLOUR ( '', #163 ) ;
#193 = ORIENTED_EDGE ( 'NONE', *, *, #190, .T. ) ;
#194 = APPLICATION_CONTEXT ( 'automotive_design' ) ;
#195 = FILL_AREA_STYLE ('',( #192 ) ) ;
#196 = VECTOR ( 'NONE', #61, 1000.000000000000000 ) ;
#197 = APPLICATION_PROTOCOL_DEFINITION ( 'draft international standard', 'automotive_design', 1998, #194 ) ;
#198 = COLOUR_RGB ( '',1.000000000000000000, 1.000000000000000000, 1.000000000000000000 ) ;
#199 = EDGE_CURVE ( 'NONE', #12, #68, #89, .T. ) ;
#200 = CARTESIAN_POINT ( 'NONE',  ( -1500.000000000000000, -750.0000000000000000, 0.0000000000000000000 ) ) ;
#201 = FILL_AREA_STYLE_COLOUR ( '', #198 ) ;
#202 = CARTESIAN_POINT ( 'NONE',  ( -1500.000000000000000, 750.0000000000000000, 3.000000000000000000 ) ) ;
ENDSEC;
END-ISO-10303-21;
