ISO-10303-21;
HEADER;
FILE_DESCRIPTION (( 'STEP AP214' ),
    '1' );
FILE_NAME ('6520290',
    '2019-02-01T12:48:38',
    ( '' ),
    ('JUGARD+KÜNSTNER GmbH'),
    'SwSTEP 2.0',
    'SolidWorks 2017',
    '' );
FILE_SCHEMA (( 'AUTOMOTIVE_DESIGN' ));
ENDSEC;

DATA;
#1 = MECHANICAL_DESIGN_GEOMETRIC_PRESENTATION_REPRESENTATION (  '', ( #70 ), #12 ) ;
#2 = CARTESIAN_POINT ( 'NONE',  ( 500.0000000000000000, -250.0000000000000000, 4.000000000000000000 ) ) ;
#3 = FACE_OUTER_BOUND ( 'NONE', #132, .T. ) ;
#4 = DIRECTION ( 'NONE',  ( 0.0000000000000000000, -1.000000000000000000, -0.0000000000000000000 ) ) ;
#5 = VERTEX_POINT ( 'NONE', #200 ) ;
#6 = FILL_AREA_STYLE_COLOUR ( '', #195 ) ;
#7 = VECTOR ( 'NONE', #87, 1000.000000000000000 ) ;
#8 = EDGE_CURVE ( 'NONE', #174, #24, #99, .T. ) ;
#9 = DIRECTION ( 'NONE',  ( 0.0000000000000000000, -1.000000000000000000, 0.0000000000000000000 ) ) ;
#10 =( NAMED_UNIT ( * ) SI_UNIT ( $, .STERADIAN. ) SOLID_ANGLE_UNIT ( ) );
#11 =( NAMED_UNIT ( * ) SI_UNIT ( $, .STERADIAN. ) SOLID_ANGLE_UNIT ( ) );
#12 =( GEOMETRIC_REPRESENTATION_CONTEXT ( 3 ) GLOBAL_UNCERTAINTY_ASSIGNED_CONTEXT ( ( #52 ) ) GLOBAL_UNIT_ASSIGNED_CONTEXT ( ( #166, #140, #10 ) ) REPRESENTATION_CONTEXT ( 'NONE', 'WORKASPACE' ) );
#13 = ORIENTED_EDGE ( 'NONE', *, *, #8, .F. ) ;
#14 =( LENGTH_UNIT ( ) NAMED_UNIT ( * ) SI_UNIT ( .MILLI., .METRE. ) );
#15 = PRESENTATION_STYLE_ASSIGNMENT (( #112 ) ) ;
#16 = ORIENTED_EDGE ( 'NONE', *, *, #118, .T. ) ;
#17 = EDGE_CURVE ( 'NONE', #174, #172, #188, .T. ) ;
#18 = DIRECTION ( 'NONE',  ( 1.000000000000000000, 0.0000000000000000000, -0.0000000000000000000 ) ) ;
#19 = CARTESIAN_POINT ( 'NONE',  ( -500.0000000000000000, -250.0000000000000000, 0.0000000000000000000 ) ) ;
#20 = CARTESIAN_POINT ( 'NONE',  ( 500.0000000000000000, 250.0000000000000000, 4.000000000000000000 ) ) ;
#21 = EDGE_CURVE ( 'NONE', #49, #24, #103, .T. ) ;
#22 = ADVANCED_FACE ( 'NONE', ( #149 ), #101, .F. ) ;
#23 = ORIENTED_EDGE ( 'NONE', *, *, #21, .F. ) ;
#24 = VERTEX_POINT ( 'NONE', #50 ) ;
#25 =( GEOMETRIC_REPRESENTATION_CONTEXT ( 3 ) GLOBAL_UNCERTAINTY_ASSIGNED_CONTEXT ( ( #68 ) ) GLOBAL_UNIT_ASSIGNED_CONTEXT ( ( #170, #61, #186 ) ) REPRESENTATION_CONTEXT ( 'NONE', 'WORKASPACE' ) );
#26 = ADVANCED_BREP_SHAPE_REPRESENTATION ( '6520290_CNAJF00', ( #107, #63 ), #25 ) ;
#27 = CARTESIAN_POINT ( 'NONE',  ( 0.0000000000000000000, 0.0000000000000000000, 0.0000000000000000000 ) ) ;
#28 = CARTESIAN_POINT ( 'NONE',  ( -500.0000000000000000, -250.0000000000000000, 0.0000000000000000000 ) ) ;
#29 = EDGE_CURVE ( 'NONE', #5, #174, #84, .T. ) ;
#30 = CARTESIAN_POINT ( 'NONE',  ( -500.0000000000000000, 250.0000000000000000, 4.000000000000000000 ) ) ;
#31 = LINE ( 'NONE', #163, #115 ) ;
#32 = DIRECTION ( 'NONE',  ( 0.0000000000000000000, 1.000000000000000000, -0.0000000000000000000 ) ) ;
#33 = DIRECTION ( 'NONE',  ( 0.0000000000000000000, 1.000000000000000000, 0.0000000000000000000 ) ) ;
#34 = LINE ( 'NONE', #78, #192 ) ;
#35 = DIRECTION ( 'NONE',  ( 0.0000000000000000000, -0.0000000000000000000, 1.000000000000000000 ) ) ;
#36 = ADVANCED_FACE ( 'NONE', ( #3 ), #175, .F. ) ;
#37 = LINE ( 'NONE', #19, #148 ) ;
#38 = VERTEX_POINT ( 'NONE', #117 ) ;
#39 = PLANE ( 'NONE',  #41 ) ;
#40 = UNCERTAINTY_MEASURE_WITH_UNIT (LENGTH_MEASURE( 1.000000000000000100E-005 ), #14, 'distance_accuracy_value', 'NONE');
#41 = AXIS2_PLACEMENT_3D ( 'NONE', #74, #9, #123 ) ;
#42 = PRODUCT_DEFINITION_CONTEXT ( 'detailed design', #128, 'design' ) ;
#43 = APPLICATION_PROTOCOL_DEFINITION ( 'draft international standard', 'automotive_design', 1998, #96 ) ;
#44 = AXIS2_PLACEMENT_3D ( 'NONE', #28, #169, #181 ) ;
#45 = DIRECTION ( 'NONE',  ( 0.0000000000000000000, 0.0000000000000000000, 1.000000000000000000 ) ) ;
#46 = VECTOR ( 'NONE', #64, 1000.000000000000000 ) ;
#47 = DIRECTION ( 'NONE',  ( 0.0000000000000000000, 0.0000000000000000000, 1.000000000000000000 ) ) ;
#48 = EDGE_CURVE ( 'NONE', #172, #38, #58, .T. ) ;
#49 = VERTEX_POINT ( 'NONE', #120 ) ;
#50 = CARTESIAN_POINT ( 'NONE',  ( 500.0000000000000000, -250.0000000000000000, 4.000000000000000000 ) ) ;
#51 = VECTOR ( 'NONE', #47, 1000.000000000000000 ) ;
#52 = UNCERTAINTY_MEASURE_WITH_UNIT (LENGTH_MEASURE( 1.000000000000000100E-005 ), #166, 'distance_accuracy_value', 'NONE');
#53 = LINE ( 'NONE', #83, #127 ) ;
#54 = EDGE_LOOP ( 'NONE', ( #136, #135, #95, #183 ) ) ;
#55 = EDGE_CURVE ( 'NONE', #108, #5, #37, .T. ) ;
#56 = VECTOR ( 'NONE', #18, 1000.000000000000000 ) ;
#57 = SURFACE_STYLE_USAGE ( .BOTH. , #111 ) ;
#58 = LINE ( 'NONE', #20, #165 ) ;
#59 = CARTESIAN_POINT ( 'NONE',  ( -500.0000000000000000, 250.0000000000000000, 0.0000000000000000000 ) ) ;
#60 = PRODUCT_DEFINITION_FORMATION_WITH_SPECIFIED_SOURCE ( 'ANY', '', #122, .NOT_KNOWN. ) ;
#61 =( NAMED_UNIT ( * ) PLANE_ANGLE_UNIT ( ) SI_UNIT ( $, .RADIAN. ) );
#62 = ORIENTED_EDGE ( 'NONE', *, *, #55, .T. ) ;
#63 = AXIS2_PLACEMENT_3D ( 'NONE', #27, #45, #184 ) ;
#64 = DIRECTION ( 'NONE',  ( -1.000000000000000000, -0.0000000000000000000, -0.0000000000000000000 ) ) ;
#65 = CARTESIAN_POINT ( 'NONE',  ( -500.0000000000000000, -250.0000000000000000, 4.000000000000000000 ) ) ;
#66 = CARTESIAN_POINT ( 'NONE',  ( 500.0000000000000000, 250.0000000000000000, 0.0000000000000000000 ) ) ;
#67 = LINE ( 'NONE', #171, #76 ) ;
#68 = UNCERTAINTY_MEASURE_WITH_UNIT (LENGTH_MEASURE( 1.000000000000000100E-005 ), #170, 'distance_accuracy_value', 'NONE');
#69 = SURFACE_STYLE_FILL_AREA ( #130 ) ;
#70 = STYLED_ITEM ( 'NONE', ( #144 ), #107 ) ;
#71 = CARTESIAN_POINT ( 'NONE',  ( -500.0000000000000000, 250.0000000000000000, 4.000000000000000000 ) ) ;
#72 = DIRECTION ( 'NONE',  ( 0.0000000000000000000, 0.0000000000000000000, -1.000000000000000000 ) ) ;
#73 = PRODUCT_DEFINITION_SHAPE ( 'NONE', 'NONE',  #93 ) ;
#74 = CARTESIAN_POINT ( 'NONE',  ( 500.0000000000000000, 250.0000000000000000, 4.000000000000000000 ) ) ;
#75 = EDGE_CURVE ( 'NONE', #49, #5, #31, .T. ) ;
#76 = VECTOR ( 'NONE', #141, 1000.000000000000000 ) ;
#77 = DIRECTION ( 'NONE',  ( -0.0000000000000000000, -0.0000000000000000000, 1.000000000000000000 ) ) ;
#78 = CARTESIAN_POINT ( 'NONE',  ( -500.0000000000000000, 250.0000000000000000, 4.000000000000000000 ) ) ;
#79 = VECTOR ( 'NONE', #85, 1000.000000000000000 ) ;
#80 = CARTESIAN_POINT ( 'NONE',  ( 500.0000000000000000, 250.0000000000000000, 4.000000000000000000 ) ) ;
#81 = ORIENTED_EDGE ( 'NONE', *, *, #109, .T. ) ;
#82 = AXIS2_PLACEMENT_3D ( 'NONE', #71, #147, #162 ) ;
#83 = CARTESIAN_POINT ( 'NONE',  ( 500.0000000000000000, -250.0000000000000000, 4.000000000000000000 ) ) ;
#84 = LINE ( 'NONE', #158, #79 ) ;
#85 = DIRECTION ( 'NONE',  ( 1.000000000000000000, 0.0000000000000000000, -0.0000000000000000000 ) ) ;
#86 = CARTESIAN_POINT ( 'NONE',  ( 500.0000000000000000, -250.0000000000000000, 4.000000000000000000 ) ) ;
#87 = DIRECTION ( 'NONE',  ( -0.0000000000000000000, 1.000000000000000000, 0.0000000000000000000 ) ) ;
#88 = LINE ( 'NONE', #80, #46 ) ;
#89 = ADVANCED_FACE ( 'NONE', ( #190 ), #134, .F. ) ;
#90 = SHAPE_DEFINITION_REPRESENTATION ( #73, #26 ) ;
#91 = ORIENTED_EDGE ( 'NONE', *, *, #21, .T. ) ;
#92 = ADVANCED_FACE ( 'NONE', ( #201 ), #39, .F. ) ;
#93 = PRODUCT_DEFINITION ( 'UNKNOWN', '', #60, #42 ) ;
#94 = ORIENTED_EDGE ( 'NONE', *, *, #109, .F. ) ;
#95 = ORIENTED_EDGE ( 'NONE', *, *, #29, .F. ) ;
#96 = APPLICATION_CONTEXT ( 'automotive_design' ) ;
#97 = PLANE ( 'NONE',  #44 ) ;
#98 = DIRECTION ( 'NONE',  ( 1.000000000000000000, 0.0000000000000000000, -0.0000000000000000000 ) ) ;
#99 = LINE ( 'NONE', #86, #51 ) ;
#100 = CARTESIAN_POINT ( 'NONE',  ( -500.0000000000000000, -250.0000000000000000, 4.000000000000000000 ) ) ;
#101 = PLANE ( 'NONE',  #199 ) ;
#102 = STYLED_ITEM ( 'NONE', ( #15 ), #26 ) ;
#103 = LINE ( 'NONE', #100, #56 ) ;
#104 = DIRECTION ( 'NONE',  ( 0.0000000000000000000, 0.0000000000000000000, 1.000000000000000000 ) ) ;
#105 = DIRECTION ( 'NONE',  ( -0.0000000000000000000, 0.0000000000000000000, 1.000000000000000000 ) ) ;
#106 = ORIENTED_EDGE ( 'NONE', *, *, #75, .F. ) ;
#107 = MANIFOLD_SOLID_BREP ( 'Importiert1', #113 ) ;
#108 = VERTEX_POINT ( 'NONE', #59 ) ;
#109 = EDGE_CURVE ( 'NONE', #137, #49, #125, .T. ) ;
#110 = FACE_OUTER_BOUND ( 'NONE', #54, .T. ) ;
#111 = SURFACE_SIDE_STYLE ('',( #161 ) ) ;
#112 = SURFACE_STYLE_USAGE ( .BOTH. , #197 ) ;
#113 = CLOSED_SHELL ( 'NONE', ( #173, #89, #92, #36, #22, #133 ) ) ;
#114 = MECHANICAL_DESIGN_GEOMETRIC_PRESENTATION_REPRESENTATION (  '', ( #102 ), #121 ) ;
#115 = VECTOR ( 'NONE', #72, 1000.000000000000000 ) ;
#116 = ORIENTED_EDGE ( 'NONE', *, *, #8, .T. ) ;
#117 = CARTESIAN_POINT ( 'NONE',  ( 500.0000000000000000, 250.0000000000000000, 4.000000000000000000 ) ) ;
#118 = EDGE_CURVE ( 'NONE', #108, #137, #34, .T. ) ;
#119 = CARTESIAN_POINT ( 'NONE',  ( -500.0000000000000000, 250.0000000000000000, 4.000000000000000000 ) ) ;
#120 = CARTESIAN_POINT ( 'NONE',  ( -500.0000000000000000, -250.0000000000000000, 4.000000000000000000 ) ) ;
#121 =( GEOMETRIC_REPRESENTATION_CONTEXT ( 3 ) GLOBAL_UNCERTAINTY_ASSIGNED_CONTEXT ( ( #40 ) ) GLOBAL_UNIT_ASSIGNED_CONTEXT ( ( #14, #143, #11 ) ) REPRESENTATION_CONTEXT ( 'NONE', 'WORKASPACE' ) );
#122 = PRODUCT ( '6520290_CNAJF00', '6520290_CNAJF00', '', ( #198 ) ) ;
#123 = DIRECTION ( 'NONE',  ( 0.0000000000000000000, -0.0000000000000000000, -1.000000000000000000 ) ) ;
#124 = CARTESIAN_POINT ( 'NONE',  ( 500.0000000000000000, -250.0000000000000000, 0.0000000000000000000 ) ) ;
#125 = LINE ( 'NONE', #119, #150 ) ;
#126 = ORIENTED_EDGE ( 'NONE', *, *, #182, .T. ) ;
#127 = VECTOR ( 'NONE', #32, 1000.000000000000000 ) ;
#128 = APPLICATION_CONTEXT ( 'automotive_design' ) ;
#129 = AXIS2_PLACEMENT_3D ( 'NONE', #2, #191, #104 ) ;
#130 = FILL_AREA_STYLE ('',( #185 ) ) ;
#131 = FACE_OUTER_BOUND ( 'NONE', #193, .T. ) ;
#132 = EDGE_LOOP ( 'NONE', ( #176, #145, #13, #142 ) ) ;
#133 = ADVANCED_FACE ( 'NONE', ( #131 ), #194, .T. ) ;
#134 = PLANE ( 'NONE',  #82 ) ;
#135 = ORIENTED_EDGE ( 'NONE', *, *, #17, .F. ) ;
#136 = ORIENTED_EDGE ( 'NONE', *, *, #187, .F. ) ;
#137 = VERTEX_POINT ( 'NONE', #30 ) ;
#138 = PRODUCT_RELATED_PRODUCT_CATEGORY ( 'part', '', ( #122 ) ) ;
#139 = ORIENTED_EDGE ( 'NONE', *, *, #182, .F. ) ;
#140 =( NAMED_UNIT ( * ) PLANE_ANGLE_UNIT ( ) SI_UNIT ( $, .RADIAN. ) );
#141 = DIRECTION ( 'NONE',  ( -1.000000000000000000, -0.0000000000000000000, 0.0000000000000000000 ) ) ;
#142 = ORIENTED_EDGE ( 'NONE', *, *, #17, .T. ) ;
#143 =( NAMED_UNIT ( * ) PLANE_ANGLE_UNIT ( ) SI_UNIT ( $, .RADIAN. ) );
#144 = PRESENTATION_STYLE_ASSIGNMENT (( #57 ) ) ;
#145 = ORIENTED_EDGE ( 'NONE', *, *, #168, .F. ) ;
#146 = ORIENTED_EDGE ( 'NONE', *, *, #48, .F. ) ;
#147 = DIRECTION ( 'NONE',  ( 1.000000000000000000, 0.0000000000000000000, 0.0000000000000000000 ) ) ;
#148 = VECTOR ( 'NONE', #4, 1000.000000000000000 ) ;
#149 = FACE_OUTER_BOUND ( 'NONE', #167, .T. ) ;
#150 = VECTOR ( 'NONE', #160, 1000.000000000000000 ) ;
#151 = ORIENTED_EDGE ( 'NONE', *, *, #29, .T. ) ;
#152 = FILL_AREA_STYLE ('',( #6 ) ) ;
#153 = AXIS2_PLACEMENT_3D ( 'NONE', #156, #157, #98 ) ;
#154 = ORIENTED_EDGE ( 'NONE', *, *, #118, .F. ) ;
#155 = APPLICATION_PROTOCOL_DEFINITION ( 'draft international standard', 'automotive_design', 1998, #128 ) ;
#156 = CARTESIAN_POINT ( 'NONE',  ( -500.0000000000000000, -250.0000000000000000, 4.000000000000000000 ) ) ;
#157 = DIRECTION ( 'NONE',  ( 0.0000000000000000000, 0.0000000000000000000, 1.000000000000000000 ) ) ;
#158 = CARTESIAN_POINT ( 'NONE',  ( -500.0000000000000000, -250.0000000000000000, 0.0000000000000000000 ) ) ;
#159 = CARTESIAN_POINT ( 'NONE',  ( 500.0000000000000000, -250.0000000000000000, 0.0000000000000000000 ) ) ;
#160 = DIRECTION ( 'NONE',  ( 0.0000000000000000000, -1.000000000000000000, -0.0000000000000000000 ) ) ;
#161 = SURFACE_STYLE_FILL_AREA ( #152 ) ;
#162 = DIRECTION ( 'NONE',  ( 0.0000000000000000000, 0.0000000000000000000, -1.000000000000000000 ) ) ;
#163 = CARTESIAN_POINT ( 'NONE',  ( -500.0000000000000000, -250.0000000000000000, 4.000000000000000000 ) ) ;
#164 = ORIENTED_EDGE ( 'NONE', *, *, #75, .T. ) ;
#165 = VECTOR ( 'NONE', #105, 1000.000000000000000 ) ;
#166 =( LENGTH_UNIT ( ) NAMED_UNIT ( * ) SI_UNIT ( .MILLI., .METRE. ) );
#167 = EDGE_LOOP ( 'NONE', ( #116, #23, #164, #151 ) ) ;
#168 = EDGE_CURVE ( 'NONE', #24, #38, #53, .T. ) ;
#169 = DIRECTION ( 'NONE',  ( 0.0000000000000000000, 0.0000000000000000000, 1.000000000000000000 ) ) ;
#170 =( LENGTH_UNIT ( ) NAMED_UNIT ( * ) SI_UNIT ( .MILLI., .METRE. ) );
#171 = CARTESIAN_POINT ( 'NONE',  ( -500.0000000000000000, 250.0000000000000000, 0.0000000000000000000 ) ) ;
#172 = VERTEX_POINT ( 'NONE', #66 ) ;
#173 = ADVANCED_FACE ( 'NONE', ( #110 ), #97, .F. ) ;
#174 = VERTEX_POINT ( 'NONE', #124 ) ;
#175 = PLANE ( 'NONE',  #129 ) ;
#176 = ORIENTED_EDGE ( 'NONE', *, *, #48, .T. ) ;
#177 = EDGE_LOOP ( 'NONE', ( #106, #94, #154, #62 ) ) ;
#178 = PRESENTATION_LAYER_ASSIGNMENT (  '', '', ( #102 ) ) ;
#179 = COLOUR_RGB ( '',0.7529411764705882200, 0.7529411764705882200, 0.7529411764705882200 ) ;
#180 = ORIENTED_EDGE ( 'NONE', *, *, #168, .T. ) ;
#181 = DIRECTION ( 'NONE',  ( 1.000000000000000000, 0.0000000000000000000, -0.0000000000000000000 ) ) ;
#182 = EDGE_CURVE ( 'NONE', #38, #137, #88, .T. ) ;
#183 = ORIENTED_EDGE ( 'NONE', *, *, #55, .F. ) ;
#184 = DIRECTION ( 'NONE',  ( 1.000000000000000000, 0.0000000000000000000, 0.0000000000000000000 ) ) ;
#185 = FILL_AREA_STYLE_COLOUR ( '', #179 ) ;
#186 =( NAMED_UNIT ( * ) SI_UNIT ( $, .STERADIAN. ) SOLID_ANGLE_UNIT ( ) );
#187 = EDGE_CURVE ( 'NONE', #172, #108, #67, .T. ) ;
#188 = LINE ( 'NONE', #159, #7 ) ;
#189 = EDGE_LOOP ( 'NONE', ( #16, #139, #146, #202 ) ) ;
#190 = FACE_OUTER_BOUND ( 'NONE', #177, .T. ) ;
#191 = DIRECTION ( 'NONE',  ( -1.000000000000000000, 0.0000000000000000000, 0.0000000000000000000 ) ) ;
#192 = VECTOR ( 'NONE', #77, 1000.000000000000000 ) ;
#193 = EDGE_LOOP ( 'NONE', ( #180, #126, #81, #91 ) ) ;
#194 = PLANE ( 'NONE',  #153 ) ;
#195 = COLOUR_RGB ( '',0.8980392156862745400, 0.8980392156862745400, 0.8980392156862745400 ) ;
#196 = PRESENTATION_LAYER_ASSIGNMENT (  '', '', ( #70 ) ) ;
#197 = SURFACE_SIDE_STYLE ('',( #69 ) ) ;
#198 = PRODUCT_CONTEXT ( 'NONE', #96, 'mechanical' ) ;
#199 = AXIS2_PLACEMENT_3D ( 'NONE', #65, #33, #35 ) ;
#200 = CARTESIAN_POINT ( 'NONE',  ( -500.0000000000000000, -250.0000000000000000, 0.0000000000000000000 ) ) ;
#201 = FACE_OUTER_BOUND ( 'NONE', #189, .T. ) ;
#202 = ORIENTED_EDGE ( 'NONE', *, *, #187, .T. ) ;
ENDSEC;
END-ISO-10303-21;
