ISO-10303-21;
HEADER;
FILE_DESCRIPTION (( 'STEP AP214' ),
    '1' );
FILE_NAME ('6520408',
    '2019-02-01T12:48:58',
    ( '' ),
    ('JUGARD+KÜNSTNER GmbH'),
    'SwSTEP 2.0',
    'SolidWorks 2017',
    '' );
FILE_SCHEMA (( 'AUTOMOTIVE_DESIGN' ));
ENDSEC;

DATA;
#1 = VECTOR ( 'NONE', #108, 1000.000000000000000 ) ;
#2 = EDGE_CURVE ( 'NONE', #106, #189, #53, .T. ) ;
#3 = ADVANCED_FACE ( 'NONE', ( #135 ), #181, .F. ) ;
#4 = CARTESIAN_POINT ( 'NONE',  ( -479.4895887958899700, -1179.695348185100100, 0.0000000000000000000 ) ) ;
#5 = DIRECTION ( 'NONE',  ( 0.0000000000000000000, -1.000000000000000000, -0.0000000000000000000 ) ) ;
#6 = ORIENTED_EDGE ( 'NONE', *, *, #115, .T. ) ;
#7 =( NAMED_UNIT ( * ) SI_UNIT ( $, .STERADIAN. ) SOLID_ANGLE_UNIT ( ) );
#8 = CARTESIAN_POINT ( 'NONE',  ( 520.5104112041100300, -1179.695348185100100, 0.0000000000000000000 ) ) ;
#9 = AXIS2_PLACEMENT_3D ( 'NONE', #49, #158, #159 ) ;
#10 = DIRECTION ( 'NONE',  ( -0.0000000000000000000, 0.0000000000000000000, 1.000000000000000000 ) ) ;
#11 = PRESENTATION_STYLE_ASSIGNMENT (( #182 ) ) ;
#12 = PRESENTATION_STYLE_ASSIGNMENT (( #91 ) ) ;
#13 = CLOSED_SHELL ( 'NONE', ( #143, #146, #3, #62, #194, #64 ) ) ;
#14 = AXIS2_PLACEMENT_3D ( 'NONE', #163, #63, #107 ) ;
#15 = EDGE_CURVE ( 'NONE', #106, #173, #85, .T. ) ;
#16 = DIRECTION ( 'NONE',  ( 0.0000000000000000000, 1.000000000000000000, -0.0000000000000000000 ) ) ;
#17 = VECTOR ( 'NONE', #121, 1000.000000000000000 ) ;
#18 = PLANE ( 'NONE',  #45 ) ;
#19 = DIRECTION ( 'NONE',  ( 1.000000000000000000, 0.0000000000000000000, -0.0000000000000000000 ) ) ;
#20 = PRODUCT_DEFINITION ( 'UNKNOWN', '', #87, #191 ) ;
#21 = CARTESIAN_POINT ( 'NONE',  ( 520.5104112041100300, 820.3046518149039900, 3.000000000000000000 ) ) ;
#22 = CARTESIAN_POINT ( 'NONE',  ( -479.4895887958899700, -1179.695348185100100, 3.000000000000000000 ) ) ;
#23 = DIRECTION ( 'NONE',  ( 0.0000000000000000000, 0.0000000000000000000, 1.000000000000000000 ) ) ;
#24 = APPLICATION_CONTEXT ( 'automotive_design' ) ;
#25 = ORIENTED_EDGE ( 'NONE', *, *, #141, .F. ) ;
#26 = AXIS2_PLACEMENT_3D ( 'NONE', #21, #197, #123 ) ;
#27 = PLANE ( 'NONE',  #134 ) ;
#28 = PRODUCT_DEFINITION_SHAPE ( 'NONE', 'NONE',  #20 ) ;
#29 = UNCERTAINTY_MEASURE_WITH_UNIT (LENGTH_MEASURE( 1.000000000000000100E-005 ), #169, 'distance_accuracy_value', 'NONE');
#30 = ORIENTED_EDGE ( 'NONE', *, *, #154, .F. ) ;
#31 = VERTEX_POINT ( 'NONE', #36 ) ;
#32 = VECTOR ( 'NONE', #165, 1000.000000000000000 ) ;
#33 = PLANE ( 'NONE',  #9 ) ;
#34 = MECHANICAL_DESIGN_GEOMETRIC_PRESENTATION_REPRESENTATION (  '', ( #40 ), #71 ) ;
#35 = AXIS2_PLACEMENT_3D ( 'NONE', #67, #124, #145 ) ;
#36 = CARTESIAN_POINT ( 'NONE',  ( 520.5104112041100300, 820.3046518149039900, 0.0000000000000000000 ) ) ;
#37 = EDGE_LOOP ( 'NONE', ( #76, #114, #167, #54 ) ) ;
#38 = APPLICATION_CONTEXT ( 'automotive_design' ) ;
#39 = ORIENTED_EDGE ( 'NONE', *, *, #156, .F. ) ;
#40 = STYLED_ITEM ( 'NONE', ( #11 ), #104 ) ;
#41 = DIRECTION ( 'NONE',  ( 0.0000000000000000000, 0.0000000000000000000, 1.000000000000000000 ) ) ;
#42 = VECTOR ( 'NONE', #103, 1000.000000000000000 ) ;
#43 = LINE ( 'NONE', #22, #185 ) ;
#44 = ORIENTED_EDGE ( 'NONE', *, *, #154, .T. ) ;
#45 = AXIS2_PLACEMENT_3D ( 'NONE', #139, #80, #102 ) ;
#46 = UNCERTAINTY_MEASURE_WITH_UNIT (LENGTH_MEASURE( 1.000000000000000100E-005 ), #94, 'distance_accuracy_value', 'NONE');
#47 = FILL_AREA_STYLE_COLOUR ( '', #138 ) ;
#48 = LINE ( 'NONE', #198, #176 ) ;
#49 = CARTESIAN_POINT ( 'NONE',  ( -479.4895887958899700, -1179.695348185100100, 3.000000000000000000 ) ) ;
#50 =( NAMED_UNIT ( * ) PLANE_ANGLE_UNIT ( ) SI_UNIT ( $, .RADIAN. ) );
#51 = CARTESIAN_POINT ( 'NONE',  ( -479.4895887958899700, -1179.695348185100100, 0.0000000000000000000 ) ) ;
#52 =( NAMED_UNIT ( * ) SI_UNIT ( $, .STERADIAN. ) SOLID_ANGLE_UNIT ( ) );
#53 = LINE ( 'NONE', #126, #186 ) ;
#54 = ORIENTED_EDGE ( 'NONE', *, *, #15, .T. ) ;
#55 = DIRECTION ( 'NONE',  ( 0.0000000000000000000, 0.0000000000000000000, -1.000000000000000000 ) ) ;
#56 = ORIENTED_EDGE ( 'NONE', *, *, #118, .F. ) ;
#57 = LINE ( 'NONE', #112, #184 ) ;
#58 = SURFACE_STYLE_FILL_AREA ( #92 ) ;
#59 = VECTOR ( 'NONE', #16, 1000.000000000000000 ) ;
#60 = EDGE_LOOP ( 'NONE', ( #82, #155, #77, #117 ) ) ;
#61 = VERTEX_POINT ( 'NONE', #148 ) ;
#62 = ADVANCED_FACE ( 'NONE', ( #83 ), #129, .F. ) ;
#63 = DIRECTION ( 'NONE',  ( -1.000000000000000000, 0.0000000000000000000, 0.0000000000000000000 ) ) ;
#64 = ADVANCED_FACE ( 'NONE', ( #120 ), #149, .T. ) ;
#65 = LINE ( 'NONE', #96, #32 ) ;
#66 = FILL_AREA_STYLE_COLOUR ( '', #133 ) ;
#67 = CARTESIAN_POINT ( 'NONE',  ( -479.4895887958899700, -1179.695348185100100, 3.000000000000000000 ) ) ;
#68 = APPLICATION_PROTOCOL_DEFINITION ( 'draft international standard', 'automotive_design', 1998, #24 ) ;
#69 = DIRECTION ( 'NONE',  ( -0.0000000000000000000, -0.0000000000000000000, 1.000000000000000000 ) ) ;
#70 = ORIENTED_EDGE ( 'NONE', *, *, #156, .T. ) ;
#71 =( GEOMETRIC_REPRESENTATION_CONTEXT ( 3 ) GLOBAL_UNCERTAINTY_ASSIGNED_CONTEXT ( ( #29 ) ) GLOBAL_UNIT_ASSIGNED_CONTEXT ( ( #169, #168, #7 ) ) REPRESENTATION_CONTEXT ( 'NONE', 'WORKASPACE' ) );
#72 = EDGE_CURVE ( 'NONE', #189, #61, #65, .T. ) ;
#73 = PRODUCT ( '6520408_CNAJF00', '6520408_CNAJF00', '', ( #81 ) ) ;
#74 = VERTEX_POINT ( 'NONE', #130 ) ;
#75 = LINE ( 'NONE', #164, #59 ) ;
#76 = ORIENTED_EDGE ( 'NONE', *, *, #97, .F. ) ;
#77 = ORIENTED_EDGE ( 'NONE', *, *, #115, .F. ) ;
#78 = ORIENTED_EDGE ( 'NONE', *, *, #200, .T. ) ;
#79 = ORIENTED_EDGE ( 'NONE', *, *, #188, .F. ) ;
#80 = DIRECTION ( 'NONE',  ( 1.000000000000000000, 0.0000000000000000000, 0.0000000000000000000 ) ) ;
#81 = PRODUCT_CONTEXT ( 'NONE', #24, 'mechanical' ) ;
#82 = ORIENTED_EDGE ( 'NONE', *, *, #118, .T. ) ;
#83 = FACE_OUTER_BOUND ( 'NONE', #60, .T. ) ;
#84 = AXIS2_PLACEMENT_3D ( 'NONE', #119, #23, #109 ) ;
#85 = LINE ( 'NONE', #51, #95 ) ;
#86 = VERTEX_POINT ( 'NONE', #153 ) ;
#87 = PRODUCT_DEFINITION_FORMATION_WITH_SPECIFIED_SOURCE ( 'ANY', '', #73, .NOT_KNOWN. ) ;
#88 = SURFACE_STYLE_FILL_AREA ( #128 ) ;
#89 = CARTESIAN_POINT ( 'NONE',  ( -479.4895887958899700, -1179.695348185100100, 3.000000000000000000 ) ) ;
#90 = ORIENTED_EDGE ( 'NONE', *, *, #15, .F. ) ;
#91 = SURFACE_STYLE_USAGE ( .BOTH. , #157 ) ;
#92 = FILL_AREA_STYLE ('',( #47 ) ) ;
#93 = PRODUCT_RELATED_PRODUCT_CATEGORY ( 'part', '', ( #73 ) ) ;
#94 =( LENGTH_UNIT ( ) NAMED_UNIT ( * ) SI_UNIT ( .MILLI., .METRE. ) );
#95 = VECTOR ( 'NONE', #5, 1000.000000000000000 ) ;
#96 = CARTESIAN_POINT ( 'NONE',  ( -479.4895887958899700, 820.3046518149039900, 3.000000000000000000 ) ) ;
#97 = EDGE_CURVE ( 'NONE', #61, #173, #43, .T. ) ;
#98 = EDGE_LOOP ( 'NONE', ( #6, #30, #172, #177 ) ) ;
#99 = UNCERTAINTY_MEASURE_WITH_UNIT (LENGTH_MEASURE( 1.000000000000000100E-005 ), #125, 'distance_accuracy_value', 'NONE');
#100 = EDGE_LOOP ( 'NONE', ( #78, #199, #127, #44 ) ) ;
#101 = CARTESIAN_POINT ( 'NONE',  ( 520.5104112041100300, 820.3046518149039900, 3.000000000000000000 ) ) ;
#102 = DIRECTION ( 'NONE',  ( 0.0000000000000000000, 0.0000000000000000000, -1.000000000000000000 ) ) ;
#103 = DIRECTION ( 'NONE',  ( -1.000000000000000000, -0.0000000000000000000, 0.0000000000000000000 ) ) ;
#104 = ADVANCED_BREP_SHAPE_REPRESENTATION ( '6520408_CNAJF00', ( #150, #84 ), #136 ) ;
#105 = SHAPE_DEFINITION_REPRESENTATION ( #28, #104 ) ;
#106 = VERTEX_POINT ( 'NONE', #131 ) ;
#107 = DIRECTION ( 'NONE',  ( 0.0000000000000000000, 0.0000000000000000000, 1.000000000000000000 ) ) ;
#108 = DIRECTION ( 'NONE',  ( -1.000000000000000000, -0.0000000000000000000, -0.0000000000000000000 ) ) ;
#109 = DIRECTION ( 'NONE',  ( 1.000000000000000000, 0.0000000000000000000, 0.0000000000000000000 ) ) ;
#110 = PRESENTATION_LAYER_ASSIGNMENT (  '', '', ( #192 ) ) ;
#111 = DIRECTION ( 'NONE',  ( 1.000000000000000000, 0.0000000000000000000, -0.0000000000000000000 ) ) ;
#112 = CARTESIAN_POINT ( 'NONE',  ( 520.5104112041100300, -1179.695348185100100, 3.000000000000000000 ) ) ;
#113 = LINE ( 'NONE', #101, #1 ) ;
#114 = ORIENTED_EDGE ( 'NONE', *, *, #72, .F. ) ;
#115 = EDGE_CURVE ( 'NONE', #86, #160, #57, .T. ) ;
#116 = LINE ( 'NONE', #8, #175 ) ;
#117 = ORIENTED_EDGE ( 'NONE', *, *, #141, .T. ) ;
#118 = EDGE_CURVE ( 'NONE', #31, #74, #48, .T. ) ;
#119 = CARTESIAN_POINT ( 'NONE',  ( 0.0000000000000000000, 0.0000000000000000000, 0.0000000000000000000 ) ) ;
#120 = FACE_OUTER_BOUND ( 'NONE', #100, .T. ) ;
#121 = DIRECTION ( 'NONE',  ( 1.000000000000000000, 0.0000000000000000000, -0.0000000000000000000 ) ) ;
#122 =( GEOMETRIC_REPRESENTATION_CONTEXT ( 3 ) GLOBAL_UNCERTAINTY_ASSIGNED_CONTEXT ( ( #46 ) ) GLOBAL_UNIT_ASSIGNED_CONTEXT ( ( #94, #50, #52 ) ) REPRESENTATION_CONTEXT ( 'NONE', 'WORKASPACE' ) );
#123 = DIRECTION ( 'NONE',  ( 0.0000000000000000000, -0.0000000000000000000, -1.000000000000000000 ) ) ;
#124 = DIRECTION ( 'NONE',  ( 0.0000000000000000000, 0.0000000000000000000, 1.000000000000000000 ) ) ;
#125 =( LENGTH_UNIT ( ) NAMED_UNIT ( * ) SI_UNIT ( .MILLI., .METRE. ) );
#126 = CARTESIAN_POINT ( 'NONE',  ( -479.4895887958899700, 820.3046518149039900, 3.000000000000000000 ) ) ;
#127 = ORIENTED_EDGE ( 'NONE', *, *, #72, .T. ) ;
#128 = FILL_AREA_STYLE ('',( #66 ) ) ;
#129 = PLANE ( 'NONE',  #14 ) ;
#130 = CARTESIAN_POINT ( 'NONE',  ( 520.5104112041100300, 820.3046518149039900, 3.000000000000000000 ) ) ;
#131 = CARTESIAN_POINT ( 'NONE',  ( -479.4895887958899700, 820.3046518149039900, 0.0000000000000000000 ) ) ;
#132 = CARTESIAN_POINT ( 'NONE',  ( -479.4895887958899700, -1179.695348185100100, 0.0000000000000000000 ) ) ;
#133 = COLOUR_RGB ( '',0.7529411764705882200, 0.7529411764705882200, 0.7529411764705882200 ) ;
#134 = AXIS2_PLACEMENT_3D ( 'NONE', #132, #41, #111 ) ;
#135 = FACE_OUTER_BOUND ( 'NONE', #151, .T. ) ;
#136 =( GEOMETRIC_REPRESENTATION_CONTEXT ( 3 ) GLOBAL_UNCERTAINTY_ASSIGNED_CONTEXT ( ( #99 ) ) GLOBAL_UNIT_ASSIGNED_CONTEXT ( ( #125, #147, #190 ) ) REPRESENTATION_CONTEXT ( 'NONE', 'WORKASPACE' ) );
#137 = FACE_OUTER_BOUND ( 'NONE', #98, .T. ) ;
#138 = COLOUR_RGB ( '',0.0000000000000000000, 0.0000000000000000000, 0.0000000000000000000 ) ;
#139 = CARTESIAN_POINT ( 'NONE',  ( -479.4895887958899700, 820.3046518149039900, 3.000000000000000000 ) ) ;
#140 = CARTESIAN_POINT ( 'NONE',  ( -479.4895887958899700, 820.3046518149039900, 0.0000000000000000000 ) ) ;
#141 = EDGE_CURVE ( 'NONE', #86, #31, #116, .T. ) ;
#142 = VECTOR ( 'NONE', #19, 1000.000000000000000 ) ;
#143 = ADVANCED_FACE ( 'NONE', ( #201 ), #27, .F. ) ;
#144 = LINE ( 'NONE', #4, #142 ) ;
#145 = DIRECTION ( 'NONE',  ( 1.000000000000000000, 0.0000000000000000000, -0.0000000000000000000 ) ) ;
#146 = ADVANCED_FACE ( 'NONE', ( #193 ), #18, .F. ) ;
#147 =( NAMED_UNIT ( * ) PLANE_ANGLE_UNIT ( ) SI_UNIT ( $, .RADIAN. ) );
#148 = CARTESIAN_POINT ( 'NONE',  ( -479.4895887958899700, -1179.695348185100100, 3.000000000000000000 ) ) ;
#149 = PLANE ( 'NONE',  #35 ) ;
#150 = MANIFOLD_SOLID_BREP ( 'Importiert1', #13 ) ;
#151 = EDGE_LOOP ( 'NONE', ( #174, #202, #56, #70 ) ) ;
#152 = DIRECTION ( 'NONE',  ( -0.0000000000000000000, 1.000000000000000000, 0.0000000000000000000 ) ) ;
#153 = CARTESIAN_POINT ( 'NONE',  ( 520.5104112041100300, -1179.695348185100100, 0.0000000000000000000 ) ) ;
#154 = EDGE_CURVE ( 'NONE', #61, #160, #187, .T. ) ;
#155 = ORIENTED_EDGE ( 'NONE', *, *, #200, .F. ) ;
#156 = EDGE_CURVE ( 'NONE', #31, #106, #171, .T. ) ;
#157 = SURFACE_SIDE_STYLE ('',( #58 ) ) ;
#158 = DIRECTION ( 'NONE',  ( 0.0000000000000000000, 1.000000000000000000, 0.0000000000000000000 ) ) ;
#159 = DIRECTION ( 'NONE',  ( 0.0000000000000000000, -0.0000000000000000000, 1.000000000000000000 ) ) ;
#160 = VERTEX_POINT ( 'NONE', #195 ) ;
#161 = MECHANICAL_DESIGN_GEOMETRIC_PRESENTATION_REPRESENTATION (  '', ( #192 ), #122 ) ;
#162 = EDGE_LOOP ( 'NONE', ( #39, #25, #79, #90 ) ) ;
#163 = CARTESIAN_POINT ( 'NONE',  ( 520.5104112041100300, -1179.695348185100100, 3.000000000000000000 ) ) ;
#164 = CARTESIAN_POINT ( 'NONE',  ( 520.5104112041100300, -1179.695348185100100, 3.000000000000000000 ) ) ;
#165 = DIRECTION ( 'NONE',  ( 0.0000000000000000000, -1.000000000000000000, -0.0000000000000000000 ) ) ;
#166 = SURFACE_SIDE_STYLE ('',( #88 ) ) ;
#167 = ORIENTED_EDGE ( 'NONE', *, *, #2, .F. ) ;
#168 =( NAMED_UNIT ( * ) PLANE_ANGLE_UNIT ( ) SI_UNIT ( $, .RADIAN. ) );
#169 =( LENGTH_UNIT ( ) NAMED_UNIT ( * ) SI_UNIT ( .MILLI., .METRE. ) );
#170 = PRESENTATION_LAYER_ASSIGNMENT (  '', '', ( #40 ) ) ;
#171 = LINE ( 'NONE', #140, #42 ) ;
#172 = ORIENTED_EDGE ( 'NONE', *, *, #97, .T. ) ;
#173 = VERTEX_POINT ( 'NONE', #178 ) ;
#174 = ORIENTED_EDGE ( 'NONE', *, *, #2, .T. ) ;
#175 = VECTOR ( 'NONE', #152, 1000.000000000000000 ) ;
#176 = VECTOR ( 'NONE', #10, 1000.000000000000000 ) ;
#177 = ORIENTED_EDGE ( 'NONE', *, *, #188, .T. ) ;
#178 = CARTESIAN_POINT ( 'NONE',  ( -479.4895887958899700, -1179.695348185100100, 0.0000000000000000000 ) ) ;
#179 = EDGE_CURVE ( 'NONE', #74, #189, #113, .T. ) ;
#180 = CARTESIAN_POINT ( 'NONE',  ( -479.4895887958899700, 820.3046518149039900, 3.000000000000000000 ) ) ;
#181 = PLANE ( 'NONE',  #26 ) ;
#182 = SURFACE_STYLE_USAGE ( .BOTH. , #166 ) ;
#183 = DIRECTION ( 'NONE',  ( 0.0000000000000000000, 0.0000000000000000000, 1.000000000000000000 ) ) ;
#184 = VECTOR ( 'NONE', #183, 1000.000000000000000 ) ;
#185 = VECTOR ( 'NONE', #55, 1000.000000000000000 ) ;
#186 = VECTOR ( 'NONE', #69, 1000.000000000000000 ) ;
#187 = LINE ( 'NONE', #89, #17 ) ;
#188 = EDGE_CURVE ( 'NONE', #173, #86, #144, .T. ) ;
#189 = VERTEX_POINT ( 'NONE', #180 ) ;
#190 =( NAMED_UNIT ( * ) SI_UNIT ( $, .STERADIAN. ) SOLID_ANGLE_UNIT ( ) );
#191 = PRODUCT_DEFINITION_CONTEXT ( 'detailed design', #38, 'design' ) ;
#192 = STYLED_ITEM ( 'NONE', ( #12 ), #150 ) ;
#193 = FACE_OUTER_BOUND ( 'NONE', #37, .T. ) ;
#194 = ADVANCED_FACE ( 'NONE', ( #137 ), #33, .F. ) ;
#195 = CARTESIAN_POINT ( 'NONE',  ( 520.5104112041100300, -1179.695348185100100, 3.000000000000000000 ) ) ;
#196 = APPLICATION_PROTOCOL_DEFINITION ( 'draft international standard', 'automotive_design', 1998, #38 ) ;
#197 = DIRECTION ( 'NONE',  ( 0.0000000000000000000, -1.000000000000000000, 0.0000000000000000000 ) ) ;
#198 = CARTESIAN_POINT ( 'NONE',  ( 520.5104112041100300, 820.3046518149039900, 3.000000000000000000 ) ) ;
#199 = ORIENTED_EDGE ( 'NONE', *, *, #179, .T. ) ;
#200 = EDGE_CURVE ( 'NONE', #160, #74, #75, .T. ) ;
#201 = FACE_OUTER_BOUND ( 'NONE', #162, .T. ) ;
#202 = ORIENTED_EDGE ( 'NONE', *, *, #179, .F. ) ;
ENDSEC;
END-ISO-10303-21;
