ISO-10303-21;
HEADER;
FILE_DESCRIPTION (( 'STEP AP214' ),
    '1' );
FILE_NAME ('6520410',
    '2019-02-01T12:48:59',
    ( '' ),
    ('JUGARD+KÜNSTNER GmbH'),
    'SwSTEP 2.0',
    'SolidWorks 2017',
    '' );
FILE_SCHEMA (( 'AUTOMOTIVE_DESIGN' ));
ENDSEC;

DATA;
#1 = ADVANCED_FACE ( 'NONE', ( #72 ), #107, .F. ) ;
#2 = PRESENTATION_LAYER_ASSIGNMENT (  '', '', ( #32 ) ) ;
#3 = DIRECTION ( 'NONE',  ( 1.000000000000000000, 0.0000000000000000000, -0.0000000000000000000 ) ) ;
#4 = CARTESIAN_POINT ( 'NONE',  ( 270.5104112041100300, 320.3046518149039900, 5.000000000000000000 ) ) ;
#5 = CLOSED_SHELL ( 'NONE', ( #108, #191, #124, #144, #1, #68 ) ) ;
#6 = DIRECTION ( 'NONE',  ( 0.0000000000000000000, 0.0000000000000000000, -1.000000000000000000 ) ) ;
#7 =( GEOMETRIC_REPRESENTATION_CONTEXT ( 3 ) GLOBAL_UNCERTAINTY_ASSIGNED_CONTEXT ( ( #27 ) ) GLOBAL_UNIT_ASSIGNED_CONTEXT ( ( #194, #45, #195 ) ) REPRESENTATION_CONTEXT ( 'NONE', 'WORKASPACE' ) );
#8 = DIRECTION ( 'NONE',  ( 1.000000000000000000, 0.0000000000000000000, -0.0000000000000000000 ) ) ;
#9 = VECTOR ( 'NONE', #21, 1000.000000000000000 ) ;
#10 = PRESENTATION_LAYER_ASSIGNMENT (  '', '', ( #170 ) ) ;
#11 = FILL_AREA_STYLE_COLOUR ( '', #105 ) ;
#12 = FACE_OUTER_BOUND ( 'NONE', #97, .T. ) ;
#13 = ORIENTED_EDGE ( 'NONE', *, *, #157, .T. ) ;
#14 = AXIS2_PLACEMENT_3D ( 'NONE', #102, #59, #48 ) ;
#15 = DIRECTION ( 'NONE',  ( 0.0000000000000000000, 0.0000000000000000000, 1.000000000000000000 ) ) ;
#16 = VECTOR ( 'NONE', #6, 1000.000000000000000 ) ;
#17 = VECTOR ( 'NONE', #75, 1000.000000000000000 ) ;
#18 = VERTEX_POINT ( 'NONE', #98 ) ;
#19 = PRODUCT_DEFINITION_SHAPE ( 'NONE', 'NONE',  #84 ) ;
#20 = DIRECTION ( 'NONE',  ( 0.0000000000000000000, 1.000000000000000000, 0.0000000000000000000 ) ) ;
#21 = DIRECTION ( 'NONE',  ( -0.0000000000000000000, 0.0000000000000000000, 1.000000000000000000 ) ) ;
#22 = CARTESIAN_POINT ( 'NONE',  ( 270.5104112041100300, -679.6953481850960100, 0.0000000000000000000 ) ) ;
#23 = PLANE ( 'NONE',  #88 ) ;
#24 = ORIENTED_EDGE ( 'NONE', *, *, #142, .F. ) ;
#25 = CARTESIAN_POINT ( 'NONE',  ( 270.5104112041100300, -679.6953481850960100, 5.000000000000000000 ) ) ;
#26 = EDGE_LOOP ( 'NONE', ( #156, #131, #147, #141 ) ) ;
#27 = UNCERTAINTY_MEASURE_WITH_UNIT (LENGTH_MEASURE( 1.000000000000000100E-005 ), #194, 'distance_accuracy_value', 'NONE');
#28 = DIRECTION ( 'NONE',  ( 0.0000000000000000000, 0.0000000000000000000, 1.000000000000000000 ) ) ;
#29 = DIRECTION ( 'NONE',  ( 1.000000000000000000, 0.0000000000000000000, 0.0000000000000000000 ) ) ;
#30 =( NAMED_UNIT ( * ) PLANE_ANGLE_UNIT ( ) SI_UNIT ( $, .RADIAN. ) );
#31 = VECTOR ( 'NONE', #180, 1000.000000000000000 ) ;
#32 = STYLED_ITEM ( 'NONE', ( #77 ), #83 ) ;
#33 = ORIENTED_EDGE ( 'NONE', *, *, #103, .T. ) ;
#34 = APPLICATION_CONTEXT ( 'automotive_design' ) ;
#35 = COLOUR_RGB ( '',0.0000000000000000000, 0.0000000000000000000, 0.0000000000000000000 ) ;
#36 = ORIENTED_EDGE ( 'NONE', *, *, #157, .F. ) ;
#37 = LINE ( 'NONE', #178, #31 ) ;
#38 = UNCERTAINTY_MEASURE_WITH_UNIT (LENGTH_MEASURE( 1.000000000000000100E-005 ), #118, 'distance_accuracy_value', 'NONE');
#39 = LINE ( 'NONE', #136, #196 ) ;
#40 = EDGE_LOOP ( 'NONE', ( #13, #101, #51, #33 ) ) ;
#41 = PRODUCT_DEFINITION_FORMATION_WITH_SPECIFIED_SOURCE ( 'ANY', '', #44, .NOT_KNOWN. ) ;
#42 = CARTESIAN_POINT ( 'NONE',  ( -229.4895887958900300, -679.6953481850960100, 5.000000000000000000 ) ) ;
#43 = DIRECTION ( 'NONE',  ( -0.0000000000000000000, 1.000000000000000000, 0.0000000000000000000 ) ) ;
#44 = PRODUCT ( '6520410_CNAJF00', '6520410_CNAJF00', '', ( #197 ) ) ;
#45 =( NAMED_UNIT ( * ) PLANE_ANGLE_UNIT ( ) SI_UNIT ( $, .RADIAN. ) );
#46 = DIRECTION ( 'NONE',  ( 0.0000000000000000000, 1.000000000000000000, -0.0000000000000000000 ) ) ;
#47 = SURFACE_STYLE_USAGE ( .BOTH. , #198 ) ;
#48 = DIRECTION ( 'NONE',  ( 0.0000000000000000000, 0.0000000000000000000, -1.000000000000000000 ) ) ;
#49 = VECTOR ( 'NONE', #163, 1000.000000000000000 ) ;
#50 = VECTOR ( 'NONE', #89, 1000.000000000000000 ) ;
#51 = ORIENTED_EDGE ( 'NONE', *, *, #60, .T. ) ;
#52 =( NAMED_UNIT ( * ) SI_UNIT ( $, .STERADIAN. ) SOLID_ANGLE_UNIT ( ) );
#53 = ORIENTED_EDGE ( 'NONE', *, *, #201, .F. ) ;
#54 = DIRECTION ( 'NONE',  ( 0.0000000000000000000, 0.0000000000000000000, 1.000000000000000000 ) ) ;
#55 = CARTESIAN_POINT ( 'NONE',  ( -229.4895887958900300, 320.3046518149039900, 0.0000000000000000000 ) ) ;
#56 = CARTESIAN_POINT ( 'NONE',  ( 270.5104112041100300, -679.6953481850960100, 5.000000000000000000 ) ) ;
#57 = VERTEX_POINT ( 'NONE', #159 ) ;
#58 = CARTESIAN_POINT ( 'NONE',  ( -229.4895887958900300, -679.6953481850960100, 5.000000000000000000 ) ) ;
#59 = DIRECTION ( 'NONE',  ( 1.000000000000000000, 0.0000000000000000000, 0.0000000000000000000 ) ) ;
#60 = EDGE_CURVE ( 'NONE', #187, #186, #120, .T. ) ;
#61 =( NAMED_UNIT ( * ) SI_UNIT ( $, .STERADIAN. ) SOLID_ANGLE_UNIT ( ) );
#62 = ORIENTED_EDGE ( 'NONE', *, *, #142, .T. ) ;
#63 = APPLICATION_CONTEXT ( 'automotive_design' ) ;
#64 = SURFACE_STYLE_FILL_AREA ( #167 ) ;
#65 =( GEOMETRIC_REPRESENTATION_CONTEXT ( 3 ) GLOBAL_UNCERTAINTY_ASSIGNED_CONTEXT ( ( #38 ) ) GLOBAL_UNIT_ASSIGNED_CONTEXT ( ( #118, #79, #52 ) ) REPRESENTATION_CONTEXT ( 'NONE', 'WORKASPACE' ) );
#66 = FACE_OUTER_BOUND ( 'NONE', #143, .T. ) ;
#67 = EDGE_CURVE ( 'NONE', #185, #187, #174, .T. ) ;
#68 = ADVANCED_FACE ( 'NONE', ( #104 ), #175, .T. ) ;
#69 = LINE ( 'NONE', #71, #17 ) ;
#70 = AXIS2_PLACEMENT_3D ( 'NONE', #145, #20, #86 ) ;
#71 = CARTESIAN_POINT ( 'NONE',  ( 270.5104112041100300, -679.6953481850960100, 5.000000000000000000 ) ) ;
#72 = FACE_OUTER_BOUND ( 'NONE', #26, .T. ) ;
#73 = DIRECTION ( 'NONE',  ( 0.0000000000000000000, -1.000000000000000000, -0.0000000000000000000 ) ) ;
#74 = FILL_AREA_STYLE_COLOUR ( '', #35 ) ;
#75 = DIRECTION ( 'NONE',  ( 0.0000000000000000000, 0.0000000000000000000, 1.000000000000000000 ) ) ;
#76 = AXIS2_PLACEMENT_3D ( 'NONE', #25, #109, #54 ) ;
#77 = PRESENTATION_STYLE_ASSIGNMENT (( #165 ) ) ;
#78 = ORIENTED_EDGE ( 'NONE', *, *, #81, .F. ) ;
#79 =( NAMED_UNIT ( * ) PLANE_ANGLE_UNIT ( ) SI_UNIT ( $, .RADIAN. ) );
#80 = CARTESIAN_POINT ( 'NONE',  ( 0.0000000000000000000, 0.0000000000000000000, 0.0000000000000000000 ) ) ;
#81 = EDGE_CURVE ( 'NONE', #186, #57, #202, .T. ) ;
#82 = VERTEX_POINT ( 'NONE', #176 ) ;
#83 = MANIFOLD_SOLID_BREP ( 'Importiert1', #5 ) ;
#84 = PRODUCT_DEFINITION ( 'UNKNOWN', '', #41, #177 ) ;
#85 = EDGE_CURVE ( 'NONE', #153, #171, #69, .T. ) ;
#86 = DIRECTION ( 'NONE',  ( 0.0000000000000000000, -0.0000000000000000000, 1.000000000000000000 ) ) ;
#87 = DIRECTION ( 'NONE',  ( 1.000000000000000000, 0.0000000000000000000, -0.0000000000000000000 ) ) ;
#88 = AXIS2_PLACEMENT_3D ( 'NONE', #113, #28, #164 ) ;
#89 = DIRECTION ( 'NONE',  ( -1.000000000000000000, -0.0000000000000000000, -0.0000000000000000000 ) ) ;
#90 = PLANE ( 'NONE',  #192 ) ;
#91 = DIRECTION ( 'NONE',  ( 0.0000000000000000000, -1.000000000000000000, 0.0000000000000000000 ) ) ;
#92 = PLANE ( 'NONE',  #14 ) ;
#93 = PRODUCT_RELATED_PRODUCT_CATEGORY ( 'part', '', ( #44 ) ) ;
#94 = FACE_OUTER_BOUND ( 'NONE', #150, .T. ) ;
#95 = ORIENTED_EDGE ( 'NONE', *, *, #128, .F. ) ;
#96 = EDGE_LOOP ( 'NONE', ( #140, #200, #24, #139 ) ) ;
#97 = EDGE_LOOP ( 'NONE', ( #78, #190, #121, #106 ) ) ;
#98 = CARTESIAN_POINT ( 'NONE',  ( -229.4895887958900000, 320.3046518149039900, 0.0000000000000000000 ) ) ;
#99 = FILL_AREA_STYLE ('',( #74 ) ) ;
#100 = AXIS2_PLACEMENT_3D ( 'NONE', #80, #15, #29 ) ;
#101 = ORIENTED_EDGE ( 'NONE', *, *, #67, .T. ) ;
#102 = CARTESIAN_POINT ( 'NONE',  ( -229.4895887958900300, 320.3046518149039900, 5.000000000000000000 ) ) ;
#103 = EDGE_CURVE ( 'NONE', #186, #171, #199, .T. ) ;
#104 = FACE_OUTER_BOUND ( 'NONE', #40, .T. ) ;
#105 = COLOUR_RGB ( '',0.7529411764705882200, 0.7529411764705882200, 0.7529411764705882200 ) ;
#106 = ORIENTED_EDGE ( 'NONE', *, *, #201, .T. ) ;
#107 = PLANE ( 'NONE',  #70 ) ;
#108 = ADVANCED_FACE ( 'NONE', ( #66 ), #23, .F. ) ;
#109 = DIRECTION ( 'NONE',  ( -1.000000000000000000, 0.0000000000000000000, 0.0000000000000000000 ) ) ;
#110 = LINE ( 'NONE', #55, #49 ) ;
#111 = ORIENTED_EDGE ( 'NONE', *, *, #160, .T. ) ;
#112 = SURFACE_SIDE_STYLE ('',( #161 ) ) ;
#113 = CARTESIAN_POINT ( 'NONE',  ( -229.4895887958900300, -679.6953481850960100, 0.0000000000000000000 ) ) ;
#114 = PLANE ( 'NONE',  #76 ) ;
#115 = ADVANCED_BREP_SHAPE_REPRESENTATION ( '6520410_CNAJF00', ( #83, #100 ), #166 ) ;
#116 = LINE ( 'NONE', #149, #9 ) ;
#117 = CARTESIAN_POINT ( 'NONE',  ( -229.4895887958900300, -679.6953481850960100, 0.0000000000000000000 ) ) ;
#118 =( LENGTH_UNIT ( ) NAMED_UNIT ( * ) SI_UNIT ( .MILLI., .METRE. ) );
#119 = EDGE_CURVE ( 'NONE', #57, #153, #135, .T. ) ;
#120 = LINE ( 'NONE', #127, #123 ) ;
#121 = ORIENTED_EDGE ( 'NONE', *, *, #189, .F. ) ;
#122 = VECTOR ( 'NONE', #87, 1000.000000000000000 ) ;
#123 = VECTOR ( 'NONE', #73, 1000.000000000000000 ) ;
#124 = ADVANCED_FACE ( 'NONE', ( #172 ), #90, .F. ) ;
#125 = VECTOR ( 'NONE', #43, 1000.000000000000000 ) ;
#126 = UNCERTAINTY_MEASURE_WITH_UNIT (LENGTH_MEASURE( 1.000000000000000100E-005 ), #184, 'distance_accuracy_value', 'NONE');
#127 = CARTESIAN_POINT ( 'NONE',  ( -229.4895887958900300, 320.3046518149039900, 5.000000000000000000 ) ) ;
#128 = EDGE_CURVE ( 'NONE', #82, #18, #110, .T. ) ;
#129 = CARTESIAN_POINT ( 'NONE',  ( -229.4895887958900300, -679.6953481850960100, 5.000000000000000000 ) ) ;
#130 = VECTOR ( 'NONE', #8, 1000.000000000000000 ) ;
#131 = ORIENTED_EDGE ( 'NONE', *, *, #103, .F. ) ;
#132 = CARTESIAN_POINT ( 'NONE',  ( -229.4895887958900000, 320.3046518149039900, 5.000000000000000000 ) ) ;
#133 = CARTESIAN_POINT ( 'NONE',  ( 270.5104112041100300, 320.3046518149039900, 5.000000000000000000 ) ) ;
#134 = DIRECTION ( 'NONE',  ( 0.0000000000000000000, -0.0000000000000000000, -1.000000000000000000 ) ) ;
#135 = LINE ( 'NONE', #162, #122 ) ;
#136 = CARTESIAN_POINT ( 'NONE',  ( 270.5104112041100300, -679.6953481850960100, 5.000000000000000000 ) ) ;
#137 = DIRECTION ( 'NONE',  ( 0.0000000000000000000, -1.000000000000000000, -0.0000000000000000000 ) ) ;
#138 = MECHANICAL_DESIGN_GEOMETRIC_PRESENTATION_REPRESENTATION (  '', ( #170 ), #65 ) ;
#139 = ORIENTED_EDGE ( 'NONE', *, *, #128, .T. ) ;
#140 = ORIENTED_EDGE ( 'NONE', *, *, #189, .T. ) ;
#141 = ORIENTED_EDGE ( 'NONE', *, *, #119, .T. ) ;
#142 = EDGE_CURVE ( 'NONE', #82, #185, #116, .T. ) ;
#143 = EDGE_LOOP ( 'NONE', ( #95, #169, #179, #53 ) ) ;
#144 = ADVANCED_FACE ( 'NONE', ( #94 ), #114, .F. ) ;
#145 = CARTESIAN_POINT ( 'NONE',  ( -229.4895887958900300, -679.6953481850960100, 5.000000000000000000 ) ) ;
#146 = VECTOR ( 'NONE', #137, 1000.000000000000000 ) ;
#147 = ORIENTED_EDGE ( 'NONE', *, *, #81, .T. ) ;
#148 = CARTESIAN_POINT ( 'NONE',  ( 270.5104112041100300, -679.6953481850960100, 0.0000000000000000000 ) ) ;
#149 = CARTESIAN_POINT ( 'NONE',  ( 270.5104112041100300, 320.3046518149039900, 5.000000000000000000 ) ) ;
#150 = EDGE_LOOP ( 'NONE', ( #62, #36, #168, #111 ) ) ;
#151 = DIRECTION ( 'NONE',  ( 0.0000000000000000000, 0.0000000000000000000, 1.000000000000000000 ) ) ;
#152 = CARTESIAN_POINT ( 'NONE',  ( 270.5104112041100300, 320.3046518149039900, 5.000000000000000000 ) ) ;
#153 = VERTEX_POINT ( 'NONE', #148 ) ;
#154 = LINE ( 'NONE', #117, #146 ) ;
#155 = LINE ( 'NONE', #22, #125 ) ;
#156 = ORIENTED_EDGE ( 'NONE', *, *, #85, .T. ) ;
#157 = EDGE_CURVE ( 'NONE', #171, #185, #39, .T. ) ;
#158 = SHAPE_DEFINITION_REPRESENTATION ( #19, #115 ) ;
#159 = CARTESIAN_POINT ( 'NONE',  ( -229.4895887958900300, -679.6953481850960100, 0.0000000000000000000 ) ) ;
#160 = EDGE_CURVE ( 'NONE', #153, #82, #155, .T. ) ;
#161 = SURFACE_STYLE_FILL_AREA ( #99 ) ;
#162 = CARTESIAN_POINT ( 'NONE',  ( -229.4895887958900300, -679.6953481850960100, 0.0000000000000000000 ) ) ;
#163 = DIRECTION ( 'NONE',  ( -1.000000000000000000, -0.0000000000000000000, 0.0000000000000000000 ) ) ;
#164 = DIRECTION ( 'NONE',  ( 1.000000000000000000, 0.0000000000000000000, -0.0000000000000000000 ) ) ;
#165 = SURFACE_STYLE_USAGE ( .BOTH. , #112 ) ;
#166 =( GEOMETRIC_REPRESENTATION_CONTEXT ( 3 ) GLOBAL_UNCERTAINTY_ASSIGNED_CONTEXT ( ( #126 ) ) GLOBAL_UNIT_ASSIGNED_CONTEXT ( ( #184, #30, #61 ) ) REPRESENTATION_CONTEXT ( 'NONE', 'WORKASPACE' ) );
#167 = FILL_AREA_STYLE ('',( #11 ) ) ;
#168 = ORIENTED_EDGE ( 'NONE', *, *, #85, .F. ) ;
#169 = ORIENTED_EDGE ( 'NONE', *, *, #160, .F. ) ;
#170 = STYLED_ITEM ( 'NONE', ( #188 ), #115 ) ;
#171 = VERTEX_POINT ( 'NONE', #56 ) ;
#172 = FACE_OUTER_BOUND ( 'NONE', #96, .T. ) ;
#173 = AXIS2_PLACEMENT_3D ( 'NONE', #193, #151, #3 ) ;
#174 = LINE ( 'NONE', #4, #50 ) ;
#175 = PLANE ( 'NONE',  #173 ) ;
#176 = CARTESIAN_POINT ( 'NONE',  ( 270.5104112041100300, 320.3046518149039900, 0.0000000000000000000 ) ) ;
#177 = PRODUCT_DEFINITION_CONTEXT ( 'detailed design', #63, 'design' ) ;
#178 = CARTESIAN_POINT ( 'NONE',  ( -229.4895887958900300, 320.3046518149039900, 5.000000000000000000 ) ) ;
#179 = ORIENTED_EDGE ( 'NONE', *, *, #119, .F. ) ;
#180 = DIRECTION ( 'NONE',  ( -0.0000000000000000000, -0.0000000000000000000, 1.000000000000000000 ) ) ;
#181 = APPLICATION_PROTOCOL_DEFINITION ( 'draft international standard', 'automotive_design', 1998, #63 ) ;
#182 = APPLICATION_PROTOCOL_DEFINITION ( 'draft international standard', 'automotive_design', 1998, #34 ) ;
#183 = MECHANICAL_DESIGN_GEOMETRIC_PRESENTATION_REPRESENTATION (  '', ( #32 ), #7 ) ;
#184 =( LENGTH_UNIT ( ) NAMED_UNIT ( * ) SI_UNIT ( .MILLI., .METRE. ) );
#185 = VERTEX_POINT ( 'NONE', #152 ) ;
#186 = VERTEX_POINT ( 'NONE', #129 ) ;
#187 = VERTEX_POINT ( 'NONE', #132 ) ;
#188 = PRESENTATION_STYLE_ASSIGNMENT (( #47 ) ) ;
#189 = EDGE_CURVE ( 'NONE', #18, #187, #37, .T. ) ;
#190 = ORIENTED_EDGE ( 'NONE', *, *, #60, .F. ) ;
#191 = ADVANCED_FACE ( 'NONE', ( #12 ), #92, .F. ) ;
#192 = AXIS2_PLACEMENT_3D ( 'NONE', #133, #91, #134 ) ;
#193 = CARTESIAN_POINT ( 'NONE',  ( -229.4895887958900300, -679.6953481850960100, 5.000000000000000000 ) ) ;
#194 =( LENGTH_UNIT ( ) NAMED_UNIT ( * ) SI_UNIT ( .MILLI., .METRE. ) );
#195 =( NAMED_UNIT ( * ) SI_UNIT ( $, .STERADIAN. ) SOLID_ANGLE_UNIT ( ) );
#196 = VECTOR ( 'NONE', #46, 1000.000000000000000 ) ;
#197 = PRODUCT_CONTEXT ( 'NONE', #34, 'mechanical' ) ;
#198 = SURFACE_SIDE_STYLE ('',( #64 ) ) ;
#199 = LINE ( 'NONE', #42, #130 ) ;
#200 = ORIENTED_EDGE ( 'NONE', *, *, #67, .F. ) ;
#201 = EDGE_CURVE ( 'NONE', #18, #57, #154, .T. ) ;
#202 = LINE ( 'NONE', #58, #16 ) ;
ENDSEC;
END-ISO-10303-21;
