ISO-10303-21;
HEADER;
FILE_DESCRIPTION (( 'STEP AP214' ),
    '1' );
FILE_NAME ('6520425',
    '2019-02-01T12:48:49',
    ( '' ),
    ('JUGARD+KÜNSTNER GmbH'),
    'SwSTEP 2.0',
    'SolidWorks 2017',
    '' );
FILE_SCHEMA (( 'AUTOMOTIVE_DESIGN' ));
ENDSEC;

DATA;
#1 = PRODUCT ( '6520425_CNAJF00', '6520425_CNAJF00', '', ( #56 ) ) ;
#2 = PLANE ( 'NONE',  #121 ) ;
#3 = DIRECTION ( 'NONE',  ( 1.000000000000000000, 0.0000000000000000000, 0.0000000000000000000 ) ) ;
#4 = AXIS2_PLACEMENT_3D ( 'NONE', #154, #16, #30 ) ;
#5 = ORIENTED_EDGE ( 'NONE', *, *, #87, .F. ) ;
#6 =( LENGTH_UNIT ( ) NAMED_UNIT ( * ) SI_UNIT ( .MILLI., .METRE. ) );
#7 = ADVANCED_FACE ( 'NONE', ( #51 ), #2, .F. ) ;
#8 = PLANE ( 'NONE',  #171 ) ;
#9 = CARTESIAN_POINT ( 'NONE',  ( -500.0000000000000000, -250.0000000000000000, 5.000000000000000000 ) ) ;
#10 = SURFACE_STYLE_FILL_AREA ( #79 ) ;
#11 = ORIENTED_EDGE ( 'NONE', *, *, #101, .T. ) ;
#12 = DIRECTION ( 'NONE',  ( 1.000000000000000000, 0.0000000000000000000, -0.0000000000000000000 ) ) ;
#13 = CARTESIAN_POINT ( 'NONE',  ( 500.0000000000000000, 250.0000000000000000, 5.000000000000000000 ) ) ;
#14 = CARTESIAN_POINT ( 'NONE',  ( 500.0000000000000000, -250.0000000000000000, 5.000000000000000000 ) ) ;
#15 = ORIENTED_EDGE ( 'NONE', *, *, #159, .T. ) ;
#16 = DIRECTION ( 'NONE',  ( 0.0000000000000000000, 1.000000000000000000, 0.0000000000000000000 ) ) ;
#17 = DIRECTION ( 'NONE',  ( 0.0000000000000000000, 0.0000000000000000000, -1.000000000000000000 ) ) ;
#18 =( NAMED_UNIT ( * ) PLANE_ANGLE_UNIT ( ) SI_UNIT ( $, .RADIAN. ) );
#19 = VECTOR ( 'NONE', #50, 1000.000000000000000 ) ;
#20 = DIRECTION ( 'NONE',  ( 0.0000000000000000000, 1.000000000000000000, -0.0000000000000000000 ) ) ;
#21 = EDGE_LOOP ( 'NONE', ( #187, #190, #145, #75 ) ) ;
#22 =( GEOMETRIC_REPRESENTATION_CONTEXT ( 3 ) GLOBAL_UNCERTAINTY_ASSIGNED_CONTEXT ( ( #37 ) ) GLOBAL_UNIT_ASSIGNED_CONTEXT ( ( #77, #138, #39 ) ) REPRESENTATION_CONTEXT ( 'NONE', 'WORKASPACE' ) );
#23 = CARTESIAN_POINT ( 'NONE',  ( 500.0000000000000000, -250.0000000000000000, 5.000000000000000000 ) ) ;
#24 = VECTOR ( 'NONE', #172, 1000.000000000000000 ) ;
#25 = ORIENTED_EDGE ( 'NONE', *, *, #91, .T. ) ;
#26 = LINE ( 'NONE', #52, #142 ) ;
#27 = LINE ( 'NONE', #9, #78 ) ;
#28 = ORIENTED_EDGE ( 'NONE', *, *, #164, .F. ) ;
#29 =( NAMED_UNIT ( * ) PLANE_ANGLE_UNIT ( ) SI_UNIT ( $, .RADIAN. ) );
#30 = DIRECTION ( 'NONE',  ( 0.0000000000000000000, -0.0000000000000000000, 1.000000000000000000 ) ) ;
#31 = LINE ( 'NONE', #149, #136 ) ;
#32 = PLANE ( 'NONE',  #201 ) ;
#33 = CARTESIAN_POINT ( 'NONE',  ( 500.0000000000000000, 250.0000000000000000, 5.000000000000000000 ) ) ;
#34 = AXIS2_PLACEMENT_3D ( 'NONE', #167, #88, #17 ) ;
#35 = ORIENTED_EDGE ( 'NONE', *, *, #116, .T. ) ;
#36 = APPLICATION_CONTEXT ( 'automotive_design' ) ;
#37 = UNCERTAINTY_MEASURE_WITH_UNIT (LENGTH_MEASURE( 1.000000000000000100E-005 ), #77, 'distance_accuracy_value', 'NONE');
#38 = CARTESIAN_POINT ( 'NONE',  ( -500.0000000000000000, -250.0000000000000000, 5.000000000000000000 ) ) ;
#39 =( NAMED_UNIT ( * ) SI_UNIT ( $, .STERADIAN. ) SOLID_ANGLE_UNIT ( ) );
#40 = SURFACE_SIDE_STYLE ('',( #148 ) ) ;
#41 = ORIENTED_EDGE ( 'NONE', *, *, #116, .F. ) ;
#42 = CARTESIAN_POINT ( 'NONE',  ( -500.0000000000000000, 250.0000000000000000, 0.0000000000000000000 ) ) ;
#43 =( GEOMETRIC_REPRESENTATION_CONTEXT ( 3 ) GLOBAL_UNCERTAINTY_ASSIGNED_CONTEXT ( ( #196 ) ) GLOBAL_UNIT_ASSIGNED_CONTEXT ( ( #188, #29, #60 ) ) REPRESENTATION_CONTEXT ( 'NONE', 'WORKASPACE' ) );
#44 = VECTOR ( 'NONE', #20, 1000.000000000000000 ) ;
#45 = VECTOR ( 'NONE', #59, 1000.000000000000000 ) ;
#46 = VERTEX_POINT ( 'NONE', #38 ) ;
#47 = DIRECTION ( 'NONE',  ( 0.0000000000000000000, -1.000000000000000000, -0.0000000000000000000 ) ) ;
#48 = ADVANCED_FACE ( 'NONE', ( #126 ), #103, .F. ) ;
#49 = CARTESIAN_POINT ( 'NONE',  ( 500.0000000000000000, 250.0000000000000000, 0.0000000000000000000 ) ) ;
#50 = DIRECTION ( 'NONE',  ( 0.0000000000000000000, 0.0000000000000000000, 1.000000000000000000 ) ) ;
#51 = FACE_OUTER_BOUND ( 'NONE', #177, .T. ) ;
#52 = CARTESIAN_POINT ( 'NONE',  ( 500.0000000000000000, 250.0000000000000000, 5.000000000000000000 ) ) ;
#53 = ORIENTED_EDGE ( 'NONE', *, *, #147, .F. ) ;
#54 = PRODUCT_DEFINITION_FORMATION_WITH_SPECIFIED_SOURCE ( 'ANY', '', #1, .NOT_KNOWN. ) ;
#55 = ORIENTED_EDGE ( 'NONE', *, *, #101, .F. ) ;
#56 = PRODUCT_CONTEXT ( 'NONE', #36, 'mechanical' ) ;
#57 = LINE ( 'NONE', #14, #19 ) ;
#58 = EDGE_LOOP ( 'NONE', ( #35, #153, #55, #71 ) ) ;
#59 = DIRECTION ( 'NONE',  ( -0.0000000000000000000, -0.0000000000000000000, 1.000000000000000000 ) ) ;
#60 =( NAMED_UNIT ( * ) SI_UNIT ( $, .STERADIAN. ) SOLID_ANGLE_UNIT ( ) );
#61 = DIRECTION ( 'NONE',  ( 0.0000000000000000000, 0.0000000000000000000, 1.000000000000000000 ) ) ;
#62 = PLANE ( 'NONE',  #176 ) ;
#63 = LINE ( 'NONE', #120, #45 ) ;
#64 = PRODUCT_DEFINITION_CONTEXT ( 'detailed design', #183, 'design' ) ;
#65 = CARTESIAN_POINT ( 'NONE',  ( 500.0000000000000000, 250.0000000000000000, 5.000000000000000000 ) ) ;
#66 = MECHANICAL_DESIGN_GEOMETRIC_PRESENTATION_REPRESENTATION (  '', ( #163 ), #22 ) ;
#67 = CARTESIAN_POINT ( 'NONE',  ( 500.0000000000000000, -250.0000000000000000, 5.000000000000000000 ) ) ;
#68 = VERTEX_POINT ( 'NONE', #128 ) ;
#69 = ADVANCED_FACE ( 'NONE', ( #131 ), #8, .F. ) ;
#70 = CARTESIAN_POINT ( 'NONE',  ( -500.0000000000000000, -250.0000000000000000, 0.0000000000000000000 ) ) ;
#71 = ORIENTED_EDGE ( 'NONE', *, *, #122, .T. ) ;
#72 = UNCERTAINTY_MEASURE_WITH_UNIT (LENGTH_MEASURE( 1.000000000000000100E-005 ), #6, 'distance_accuracy_value', 'NONE');
#73 = EDGE_CURVE ( 'NONE', #141, #95, #175, .T. ) ;
#74 = LINE ( 'NONE', #42, #24 ) ;
#75 = ORIENTED_EDGE ( 'NONE', *, *, #132, .T. ) ;
#76 = APPLICATION_PROTOCOL_DEFINITION ( 'draft international standard', 'automotive_design', 1998, #36 ) ;
#77 =( LENGTH_UNIT ( ) NAMED_UNIT ( * ) SI_UNIT ( .MILLI., .METRE. ) );
#78 = VECTOR ( 'NONE', #86, 1000.000000000000000 ) ;
#79 = FILL_AREA_STYLE ('',( #150 ) ) ;
#80 = DIRECTION ( 'NONE',  ( 0.0000000000000000000, -1.000000000000000000, 0.0000000000000000000 ) ) ;
#81 = ORIENTED_EDGE ( 'NONE', *, *, #122, .F. ) ;
#82 = LINE ( 'NONE', #84, #100 ) ;
#83 = ADVANCED_FACE ( 'NONE', ( #123 ), #62, .T. ) ;
#84 = CARTESIAN_POINT ( 'NONE',  ( -500.0000000000000000, -250.0000000000000000, 0.0000000000000000000 ) ) ;
#85 = VECTOR ( 'NONE', #151, 1000.000000000000000 ) ;
#86 = DIRECTION ( 'NONE',  ( 1.000000000000000000, 0.0000000000000000000, -0.0000000000000000000 ) ) ;
#87 = EDGE_CURVE ( 'NONE', #182, #141, #189, .T. ) ;
#88 = DIRECTION ( 'NONE',  ( 1.000000000000000000, 0.0000000000000000000, 0.0000000000000000000 ) ) ;
#89 = ORIENTED_EDGE ( 'NONE', *, *, #159, .F. ) ;
#90 = PRODUCT_DEFINITION_SHAPE ( 'NONE', 'NONE',  #178 ) ;
#91 = EDGE_CURVE ( 'NONE', #46, #174, #184, .T. ) ;
#92 = SHAPE_DEFINITION_REPRESENTATION ( #90, #144 ) ;
#93 = VECTOR ( 'NONE', #47, 1000.000000000000000 ) ;
#94 = EDGE_LOOP ( 'NONE', ( #143, #110, #41, #180 ) ) ;
#95 = VERTEX_POINT ( 'NONE', #146 ) ;
#96 = ORIENTED_EDGE ( 'NONE', *, *, #164, .T. ) ;
#97 = ORIENTED_EDGE ( 'NONE', *, *, #135, .F. ) ;
#98 = CARTESIAN_POINT ( 'NONE',  ( -500.0000000000000000, -250.0000000000000000, 5.000000000000000000 ) ) ;
#99 = CARTESIAN_POINT ( 'NONE',  ( -500.0000000000000000, -250.0000000000000000, 0.0000000000000000000 ) ) ;
#100 = VECTOR ( 'NONE', #107, 1000.000000000000000 ) ;
#101 = EDGE_CURVE ( 'NONE', #104, #141, #26, .T. ) ;
#102 = SURFACE_SIDE_STYLE ('',( #10 ) ) ;
#103 = PLANE ( 'NONE',  #4 ) ;
#104 = VERTEX_POINT ( 'NONE', #49 ) ;
#105 =( NAMED_UNIT ( * ) SI_UNIT ( $, .STERADIAN. ) SOLID_ANGLE_UNIT ( ) );
#106 = CARTESIAN_POINT ( 'NONE',  ( 500.0000000000000000, -250.0000000000000000, 0.0000000000000000000 ) ) ;
#107 = DIRECTION ( 'NONE',  ( 1.000000000000000000, 0.0000000000000000000, -0.0000000000000000000 ) ) ;
#108 = DIRECTION ( 'NONE',  ( 0.0000000000000000000, 0.0000000000000000000, 1.000000000000000000 ) ) ;
#109 = COLOUR_RGB ( '',0.5019607843137254800, 0.0000000000000000000, 0.0000000000000000000 ) ;
#110 = ORIENTED_EDGE ( 'NONE', *, *, #113, .F. ) ;
#111 = CARTESIAN_POINT ( 'NONE',  ( -500.0000000000000000, -250.0000000000000000, 5.000000000000000000 ) ) ;
#112 = FACE_OUTER_BOUND ( 'NONE', #58, .T. ) ;
#113 = EDGE_CURVE ( 'NONE', #95, #46, #179, .T. ) ;
#114 = PRODUCT_RELATED_PRODUCT_CATEGORY ( 'part', '', ( #1 ) ) ;
#115 = MANIFOLD_SOLID_BREP ( 'Importiert1', #133 ) ;
#116 = EDGE_CURVE ( 'NONE', #68, #95, #63, .T. ) ;
#117 = DIRECTION ( 'NONE',  ( 0.0000000000000000000, 0.0000000000000000000, 1.000000000000000000 ) ) ;
#118 = DIRECTION ( 'NONE',  ( -1.000000000000000000, 0.0000000000000000000, 0.0000000000000000000 ) ) ;
#119 = SURFACE_STYLE_USAGE ( .BOTH. , #102 ) ;
#120 = CARTESIAN_POINT ( 'NONE',  ( -500.0000000000000000, 250.0000000000000000, 5.000000000000000000 ) ) ;
#121 = AXIS2_PLACEMENT_3D ( 'NONE', #157, #118, #61 ) ;
#122 = EDGE_CURVE ( 'NONE', #104, #68, #74, .T. ) ;
#123 = FACE_OUTER_BOUND ( 'NONE', #21, .T. ) ;
#124 = EDGE_LOOP ( 'NONE', ( #15, #185, #25, #137 ) ) ;
#125 = CARTESIAN_POINT ( 'NONE',  ( -500.0000000000000000, -250.0000000000000000, 0.0000000000000000000 ) ) ;
#126 = FACE_OUTER_BOUND ( 'NONE', #124, .T. ) ;
#127 = ADVANCED_FACE ( 'NONE', ( #112 ), #32, .F. ) ;
#128 = CARTESIAN_POINT ( 'NONE',  ( -500.0000000000000000, 250.0000000000000000, 0.0000000000000000000 ) ) ;
#129 = DIRECTION ( 'NONE',  ( -0.0000000000000000000, 1.000000000000000000, 0.0000000000000000000 ) ) ;
#130 = VECTOR ( 'NONE', #162, 1000.000000000000000 ) ;
#131 = FACE_OUTER_BOUND ( 'NONE', #173, .T. ) ;
#132 = EDGE_CURVE ( 'NONE', #46, #182, #27, .T. ) ;
#133 = CLOSED_SHELL ( 'NONE', ( #69, #194, #127, #7, #48, #83 ) ) ;
#134 = PRESENTATION_LAYER_ASSIGNMENT (  '', '', ( #163 ) ) ;
#135 = EDGE_CURVE ( 'NONE', #174, #199, #82, .T. ) ;
#136 = VECTOR ( 'NONE', #129, 1000.000000000000000 ) ;
#137 = ORIENTED_EDGE ( 'NONE', *, *, #135, .T. ) ;
#138 =( NAMED_UNIT ( * ) PLANE_ANGLE_UNIT ( ) SI_UNIT ( $, .RADIAN. ) );
#139 = FILL_AREA_STYLE_COLOUR ( '', #109 ) ;
#140 = FILL_AREA_STYLE ('',( #139 ) ) ;
#141 = VERTEX_POINT ( 'NONE', #33 ) ;
#142 = VECTOR ( 'NONE', #200, 1000.000000000000000 ) ;
#143 = ORIENTED_EDGE ( 'NONE', *, *, #91, .F. ) ;
#144 = ADVANCED_BREP_SHAPE_REPRESENTATION ( '6520425_CNAJF00', ( #115, #202 ), #43 ) ;
#145 = ORIENTED_EDGE ( 'NONE', *, *, #113, .T. ) ;
#146 = CARTESIAN_POINT ( 'NONE',  ( -500.0000000000000000, 250.0000000000000000, 5.000000000000000000 ) ) ;
#147 = EDGE_CURVE ( 'NONE', #68, #174, #158, .T. ) ;
#148 = SURFACE_STYLE_FILL_AREA ( #140 ) ;
#149 = CARTESIAN_POINT ( 'NONE',  ( 500.0000000000000000, -250.0000000000000000, 0.0000000000000000000 ) ) ;
#150 = FILL_AREA_STYLE_COLOUR ( '', #170 ) ;
#151 = DIRECTION ( 'NONE',  ( 0.0000000000000000000, 0.0000000000000000000, -1.000000000000000000 ) ) ;
#152 = CARTESIAN_POINT ( 'NONE',  ( -500.0000000000000000, 250.0000000000000000, 5.000000000000000000 ) ) ;
#153 = ORIENTED_EDGE ( 'NONE', *, *, #73, .F. ) ;
#154 = CARTESIAN_POINT ( 'NONE',  ( -500.0000000000000000, -250.0000000000000000, 5.000000000000000000 ) ) ;
#155 = SURFACE_STYLE_USAGE ( .BOTH. , #40 ) ;
#156 = PRESENTATION_STYLE_ASSIGNMENT (( #119 ) ) ;
#157 = CARTESIAN_POINT ( 'NONE',  ( 500.0000000000000000, -250.0000000000000000, 5.000000000000000000 ) ) ;
#158 = LINE ( 'NONE', #125, #93 ) ;
#159 = EDGE_CURVE ( 'NONE', #199, #182, #57, .T. ) ;
#160 = DIRECTION ( 'NONE',  ( 0.0000000000000000000, -1.000000000000000000, -0.0000000000000000000 ) ) ;
#161 = STYLED_ITEM ( 'NONE', ( #165 ), #115 ) ;
#162 = DIRECTION ( 'NONE',  ( -1.000000000000000000, -0.0000000000000000000, -0.0000000000000000000 ) ) ;
#163 = STYLED_ITEM ( 'NONE', ( #156 ), #144 ) ;
#164 = EDGE_CURVE ( 'NONE', #199, #104, #31, .T. ) ;
#165 = PRESENTATION_STYLE_ASSIGNMENT (( #155 ) ) ;
#166 = DIRECTION ( 'NONE',  ( 0.0000000000000000000, 0.0000000000000000000, 1.000000000000000000 ) ) ;
#167 = CARTESIAN_POINT ( 'NONE',  ( -500.0000000000000000, 250.0000000000000000, 5.000000000000000000 ) ) ;
#168 = VECTOR ( 'NONE', #160, 1000.000000000000000 ) ;
#169 = MECHANICAL_DESIGN_GEOMETRIC_PRESENTATION_REPRESENTATION (  '', ( #161 ), #193 ) ;
#170 = COLOUR_RGB ( '',0.7529411764705882200, 0.7529411764705882200, 0.7529411764705882200 ) ;
#171 = AXIS2_PLACEMENT_3D ( 'NONE', #70, #166, #12 ) ;
#172 = DIRECTION ( 'NONE',  ( -1.000000000000000000, -0.0000000000000000000, 0.0000000000000000000 ) ) ;
#173 = EDGE_LOOP ( 'NONE', ( #81, #28, #97, #53 ) ) ;
#174 = VERTEX_POINT ( 'NONE', #99 ) ;
#175 = LINE ( 'NONE', #13, #130 ) ;
#176 = AXIS2_PLACEMENT_3D ( 'NONE', #98, #108, #192 ) ;
#177 = EDGE_LOOP ( 'NONE', ( #11, #5, #89, #96 ) ) ;
#178 = PRODUCT_DEFINITION ( 'UNKNOWN', '', #54, #64 ) ;
#179 = LINE ( 'NONE', #152, #168 ) ;
#180 = ORIENTED_EDGE ( 'NONE', *, *, #147, .T. ) ;
#181 = PRESENTATION_LAYER_ASSIGNMENT (  '', '', ( #161 ) ) ;
#182 = VERTEX_POINT ( 'NONE', #23 ) ;
#183 = APPLICATION_CONTEXT ( 'automotive_design' ) ;
#184 = LINE ( 'NONE', #111, #85 ) ;
#185 = ORIENTED_EDGE ( 'NONE', *, *, #132, .F. ) ;
#186 = APPLICATION_PROTOCOL_DEFINITION ( 'draft international standard', 'automotive_design', 1998, #183 ) ;
#187 = ORIENTED_EDGE ( 'NONE', *, *, #87, .T. ) ;
#188 =( LENGTH_UNIT ( ) NAMED_UNIT ( * ) SI_UNIT ( .MILLI., .METRE. ) );
#189 = LINE ( 'NONE', #67, #44 ) ;
#190 = ORIENTED_EDGE ( 'NONE', *, *, #73, .T. ) ;
#191 = DIRECTION ( 'NONE',  ( 0.0000000000000000000, -0.0000000000000000000, -1.000000000000000000 ) ) ;
#192 = DIRECTION ( 'NONE',  ( 1.000000000000000000, 0.0000000000000000000, -0.0000000000000000000 ) ) ;
#193 =( GEOMETRIC_REPRESENTATION_CONTEXT ( 3 ) GLOBAL_UNCERTAINTY_ASSIGNED_CONTEXT ( ( #72 ) ) GLOBAL_UNIT_ASSIGNED_CONTEXT ( ( #6, #18, #105 ) ) REPRESENTATION_CONTEXT ( 'NONE', 'WORKASPACE' ) );
#194 = ADVANCED_FACE ( 'NONE', ( #195 ), #197, .F. ) ;
#195 = FACE_OUTER_BOUND ( 'NONE', #94, .T. ) ;
#196 = UNCERTAINTY_MEASURE_WITH_UNIT (LENGTH_MEASURE( 1.000000000000000100E-005 ), #188, 'distance_accuracy_value', 'NONE');
#197 = PLANE ( 'NONE',  #34 ) ;
#198 = CARTESIAN_POINT ( 'NONE',  ( 0.0000000000000000000, 0.0000000000000000000, 0.0000000000000000000 ) ) ;
#199 = VERTEX_POINT ( 'NONE', #106 ) ;
#200 = DIRECTION ( 'NONE',  ( -0.0000000000000000000, 0.0000000000000000000, 1.000000000000000000 ) ) ;
#201 = AXIS2_PLACEMENT_3D ( 'NONE', #65, #80, #191 ) ;
#202 = AXIS2_PLACEMENT_3D ( 'NONE', #198, #117, #3 ) ;
ENDSEC;
END-ISO-10303-21;
