ISO-10303-21;
HEADER;
FILE_DESCRIPTION (( 'STEP AP214' ),
    '1' );
FILE_NAME ('6750030',
    '2019-02-01T13:00:24',
    ( '' ),
    ('JUGARD+KÜNSTNER GmbH'),
    'SwSTEP 2.0',
    'SolidWorks 2017',
    '' );
FILE_SCHEMA (( 'AUTOMOTIVE_DESIGN' ));
ENDSEC;

DATA;
#1 = ORIENTED_EDGE ( 'NONE', *, *, #84, .T. ) ;
#2 = ORIENTED_EDGE ( 'NONE', *, *, #181, .T. ) ;
#3 = AXIS2_PLACEMENT_3D ( 'NONE', #286, #337, #339 ) ;
#4 = ADVANCED_FACE ( 'NONE', ( #132 ), #108, .F. ) ;
#5 = VECTOR ( 'NONE', #259, 1000.000000000000000 ) ;
#6 = ORIENTED_EDGE ( 'NONE', *, *, #145, .T. ) ;
#7 = DIRECTION ( 'NONE',  ( 0.0000000000000000000, 0.0000000000000000000, -1.000000000000000000 ) ) ;
#8 = ORIENTED_EDGE ( 'NONE', *, *, #179, .T. ) ;
#9 = VECTOR ( 'NONE', #231, 1000.000000000000000 ) ;
#10 = STYLED_ITEM ( 'NONE', ( #142 ), #300 ) ;
#11 = ORIENTED_EDGE ( 'NONE', *, *, #102, .F. ) ;
#12 = ADVANCED_FACE ( 'NONE', ( #113 ), #138, .T. ) ;
#13 = DIRECTION ( 'NONE',  ( 0.2588190451025079200, -0.0000000000000000000, 0.9659258262890716400 ) ) ;
#14 = CARTESIAN_POINT ( 'NONE',  ( -0.06429147099382140400, -9.500000000000000000, 14.75601484475859900 ) ) ;
#15 = EDGE_CURVE ( 'NONE', #274, #160, #35, .T. ) ;
#16 = ORIENTED_EDGE ( 'NONE', *, *, #102, .T. ) ;
#17 = ORIENTED_EDGE ( 'NONE', *, *, #84, .F. ) ;
#18 = CARTESIAN_POINT ( 'NONE',  ( -49.50000000000000000, 9.500000000000000000, 6.431800548195809600 ) ) ;
#19 = DIRECTION ( 'NONE',  ( -9.810362707712930500E-114, 5.151219052560429400E-033, 1.000000000000000000 ) ) ;
#20 = CARTESIAN_POINT ( 'NONE',  ( 49.50000000000000000, 9.500000000000000000, 21.93180054819581000 ) ) ;
#21 = PRODUCT_RELATED_PRODUCT_CATEGORY ( 'part', '', ( #304 ) ) ;
#22 = DIRECTION ( 'NONE',  ( -0.0000000000000000000, 1.000000000000000000, 0.0000000000000000000 ) ) ;
#23 = FILL_AREA_STYLE_COLOUR ( '', #296 ) ;
#24 = VERTEX_POINT ( 'NONE', #325 ) ;
#25 = UNCERTAINTY_MEASURE_WITH_UNIT (LENGTH_MEASURE( 1.000000000000000100E-005 ), #51, 'distance_accuracy_value', 'NONE');
#26 =( NAMED_UNIT ( * ) PLANE_ANGLE_UNIT ( ) SI_UNIT ( $, .RADIAN. ) );
#27 = LINE ( 'NONE', #95, #105 ) ;
#28 =( GEOMETRIC_REPRESENTATION_CONTEXT ( 3 ) GLOBAL_UNCERTAINTY_ASSIGNED_CONTEXT ( ( #25 ) ) GLOBAL_UNIT_ASSIGNED_CONTEXT ( ( #51, #26, #291 ) ) REPRESENTATION_CONTEXT ( 'NONE', 'WORKASPACE' ) );
#29 = EDGE_CURVE ( 'NONE', #24, #160, #68, .T. ) ;
#30 = CARTESIAN_POINT ( 'NONE',  ( 49.50000000000000000, 9.500000000000000000, 6.431800548195799800 ) ) ;
#31 = AXIS2_PLACEMENT_3D ( 'NONE', #78, #57, #290 ) ;
#32 = CIRCLE ( 'NONE', #161, 14.00000000000000000 ) ;
#33 = DIRECTION ( 'NONE',  ( -1.000000000000000000, 0.0000000000000000000, 3.588599675556060000E-017 ) ) ;
#34 = STYLED_ITEM ( 'NONE', ( #157 ), #166 ) ;
#35 = LINE ( 'NONE', #225, #180 ) ;
#36 = CARTESIAN_POINT ( 'NONE',  ( -0.06429147099382140400, 9.500000000000000000, 21.93180054819579900 ) ) ;
#37 = CARTESIAN_POINT ( 'NONE',  ( 49.50000000000000000, 9.500000000000000000, 6.431800548195820300 ) ) ;
#38 = EDGE_LOOP ( 'NONE', ( #292, #122, #151, #140 ) ) ;
#39 = DIRECTION ( 'NONE',  ( 0.9659258262890717500, 0.0000000000000000000, -0.2588190451025079700 ) ) ;
#40 = DIRECTION ( 'NONE',  ( -0.9659258262890714200, 0.0000000000000000000, -0.2588190451025089200 ) ) ;
#41 = FACE_OUTER_BOUND ( 'NONE', #270, .T. ) ;
#42 = FACE_OUTER_BOUND ( 'NONE', #224, .T. ) ;
#43 = CARTESIAN_POINT ( 'NONE',  ( 49.50000000000000000, 9.500000000000000000, 20.43180054819579900 ) ) ;
#44 = DIRECTION ( 'NONE',  ( 0.0000000000000000000, 0.0000000000000000000, -1.000000000000000000 ) ) ;
#45 = EDGE_LOOP ( 'NONE', ( #81, #282, #313, #17 ) ) ;
#46 = EDGE_CURVE ( 'NONE', #83, #255, #136, .T. ) ;
#47 = DIRECTION ( 'NONE',  ( 1.000000000000000000, 0.0000000000000000000, 0.0000000000000000000 ) ) ;
#48 = AXIS2_PLACEMENT_3D ( 'NONE', #314, #240, #154 ) ;
#49 = EDGE_LOOP ( 'NONE', ( #205, #1, #6, #342 ) ) ;
#50 = ADVANCED_FACE ( 'NONE', ( #75 ), #280, .F. ) ;
#51 =( LENGTH_UNIT ( ) NAMED_UNIT ( * ) SI_UNIT ( .MILLI., .METRE. ) );
#52 = COLOUR_RGB ( '',0.0000000000000000000, 0.0000000000000000000, 0.0000000000000000000 ) ;
#53 =( GEOMETRIC_REPRESENTATION_CONTEXT ( 3 ) GLOBAL_UNCERTAINTY_ASSIGNED_CONTEXT ( ( #245 ) ) GLOBAL_UNIT_ASSIGNED_CONTEXT ( ( #316, #82, #340 ) ) REPRESENTATION_CONTEXT ( 'NONE', 'WORKASPACE' ) );
#54 = CARTESIAN_POINT ( 'NONE',  ( 49.50000000000000000, 9.500000000000000000, 21.93180054819582000 ) ) ;
#55 = DIRECTION ( 'NONE',  ( 0.0000000000000000000, 0.0000000000000000000, 1.000000000000000000 ) ) ;
#56 = ORIENTED_EDGE ( 'NONE', *, *, #322, .T. ) ;
#57 = DIRECTION ( 'NONE',  ( -0.0000000000000000000, 1.000000000000000000, -0.0000000000000000000 ) ) ;
#58 = VERTEX_POINT ( 'NONE', #92 ) ;
#59 = DIRECTION ( 'NONE',  ( 0.0000000000000000000, 0.0000000000000000000, -1.000000000000000000 ) ) ;
#60 = VERTEX_POINT ( 'NONE', #61 ) ;
#61 = CARTESIAN_POINT ( 'NONE',  ( -53.12346663143529900, 9.500000000000000000, -7.091161019851144300 ) ) ;
#62 = CARTESIAN_POINT ( 'NONE',  ( 49.50000000000000000, 9.500000000000000000, 6.431800548195820300 ) ) ;
#63 = VERTEX_POINT ( 'NONE', #272 ) ;
#64 = DIRECTION ( 'NONE',  ( -0.2588190451025079200, 0.0000000000000000000, -0.9659258262890716400 ) ) ;
#65 = EDGE_CURVE ( 'NONE', #58, #243, #200, .T. ) ;
#66 = PLANE ( 'NONE',  #329 ) ;
#67 = AXIS2_PLACEMENT_3D ( 'NONE', #302, #305, #94 ) ;
#68 = LINE ( 'NONE', #196, #334 ) ;
#69 = CARTESIAN_POINT ( 'NONE',  ( -49.50000000000000000, 9.500000000000000000, 20.43180054819580200 ) ) ;
#70 = DIRECTION ( 'NONE',  ( -0.2588190451024701700, 0.0000000000000000000, 0.9659258262890817500 ) ) ;
#71 = AXIS2_PLACEMENT_3D ( 'NONE', #62, #170, #7 ) ;
#72 = ORIENTED_EDGE ( 'NONE', *, *, #287, .T. ) ;
#73 = DIRECTION ( 'NONE',  ( 0.0000000000000000000, 0.0000000000000000000, -1.000000000000000000 ) ) ;
#74 = CARTESIAN_POINT ( 'NONE',  ( 53.12346663143529900, -9.500000000000000000, -7.091161019851154100 ) ) ;
#75 = FACE_OUTER_BOUND ( 'NONE', #186, .T. ) ;
#76 = VECTOR ( 'NONE', #242, 1000.000000000000000 ) ;
#77 = PRODUCT_CONTEXT ( 'NONE', #131, 'mechanical' ) ;
#78 = CARTESIAN_POINT ( 'NONE',  ( -49.50000000000000000, 9.500000000000000000, 6.431800548195809600 ) ) ;
#79 = VERTEX_POINT ( 'NONE', #335 ) ;
#80 = CARTESIAN_POINT ( 'NONE',  ( -53.12346663143529900, 9.500000000000000000, -7.091161019851143400 ) ) ;
#81 = ORIENTED_EDGE ( 'NONE', *, *, #287, .F. ) ;
#82 =( NAMED_UNIT ( * ) PLANE_ANGLE_UNIT ( ) SI_UNIT ( $, .RADIAN. ) );
#83 = VERTEX_POINT ( 'NONE', #69 ) ;
#84 = EDGE_CURVE ( 'NONE', #89, #324, #143, .T. ) ;
#85 = DIRECTION ( 'NONE',  ( 0.0000000000000000000, 0.0000000000000000000, -1.000000000000000000 ) ) ;
#86 = PRODUCT_DEFINITION_SHAPE ( 'NONE', 'NONE',  #171 ) ;
#87 = UNCERTAINTY_MEASURE_WITH_UNIT (LENGTH_MEASURE( 1.000000000000000100E-005 ), #135, 'distance_accuracy_value', 'NONE');
#88 = ORIENTED_EDGE ( 'NONE', *, *, #207, .F. ) ;
#89 = VERTEX_POINT ( 'NONE', #233 ) ;
#90 = EDGE_CURVE ( 'NONE', #24, #202, #119, .T. ) ;
#91 = ADVANCED_FACE ( 'N', ( #42 ), #235, .T. ) ;
#92 = CARTESIAN_POINT ( 'NONE',  ( 53.51169519908900400, -9.499999999999998200, -8.540049759284754000 ) ) ;
#93 = ORIENTED_EDGE ( 'NONE', *, *, #29, .F. ) ;
#94 = DIRECTION ( 'NONE',  ( 0.0000000000000000000, 0.0000000000000000000, -1.000000000000000000 ) ) ;
#95 = CARTESIAN_POINT ( 'NONE',  ( -53.12346663143529900, 9.500000000000000000, -7.091161019851139900 ) ) ;
#96 = DIRECTION ( 'NONE',  ( 0.0000000000000000000, -0.0000000000000000000, 1.000000000000000000 ) ) ;
#97 = DIRECTION ( 'NONE',  ( 0.0000000000000000000, -1.000000000000000000, 0.0000000000000000000 ) ) ;
#98 = AXIS2_PLACEMENT_3D ( 'NONE', #341, #55, #47 ) ;
#99 = DIRECTION ( 'NONE',  ( 0.0000000000000000000, -1.000000000000000000, 0.0000000000000000000 ) ) ;
#100 = PLANE ( 'NONE',  #177 ) ;
#101 = CARTESIAN_POINT ( 'NONE',  ( -49.50000000000000000, -9.500000000000000000, 20.43180054819580200 ) ) ;
#102 = EDGE_CURVE ( 'NONE', #63, #202, #318, .T. ) ;
#103 = SHAPE_DEFINITION_REPRESENTATION ( #86, #166 ) ;
#104 = AXIS2_PLACEMENT_3D ( 'NONE', #14, #279, #258 ) ;
#105 = VECTOR ( 'NONE', #13, 1000.000000000000100 ) ;
#106 = PRODUCT_DEFINITION_CONTEXT ( 'detailed design', #213, 'design' ) ;
#107 = DIRECTION ( 'NONE',  ( -0.2588190451024701700, 0.0000000000000000000, 0.9659258262890817500 ) ) ;
#108 = CYLINDRICAL_SURFACE ( 'NONE', #303, 14.00000000000000000 ) ;
#109 = EDGE_CURVE ( 'NONE', #274, #60, #27, .T. ) ;
#110 = ADVANCED_FACE ( 'NONE', ( #309 ), #66, .T. ) ;
#111 = EDGE_LOOP ( 'NONE', ( #117, #257, #16, #237 ) ) ;
#112 = LINE ( 'NONE', #130, #256 ) ;
#113 = FACE_OUTER_BOUND ( 'NONE', #197, .T. ) ;
#114 = EDGE_CURVE ( 'NONE', #63, #243, #32, .T. ) ;
#115 = ORIENTED_EDGE ( 'NONE', *, *, #289, .T. ) ;
#116 = DIRECTION ( 'NONE',  ( 0.0000000000000000000, 0.0000000000000000000, -1.000000000000000000 ) ) ;
#117 = ORIENTED_EDGE ( 'NONE', *, *, #46, .T. ) ;
#118 = FACE_OUTER_BOUND ( 'NONE', #111, .T. ) ;
#119 = CIRCLE ( 'NONE', #134, 14.00000000000000000 ) ;
#120 = CARTESIAN_POINT ( 'NONE',  ( -49.50000000000000000, -9.500000000000000000, 6.431800548195809600 ) ) ;
#121 = DIRECTION ( 'NONE',  ( -1.000000000000000000, 0.0000000000000000000, 3.588599675556060000E-017 ) ) ;
#122 = ORIENTED_EDGE ( 'NONE', *, *, #322, .F. ) ;
#123 = ORIENTED_EDGE ( 'NONE', *, *, #145, .F. ) ;
#124 = PLANE ( 'NONE',  #299 ) ;
#125 = EDGE_CURVE ( 'NONE', #260, #58, #262, .T. ) ;
#126 = DIRECTION ( 'NONE',  ( 0.0000000000000000000, 0.0000000000000000000, -1.000000000000000000 ) ) ;
#127 =( NAMED_UNIT ( * ) SI_UNIT ( $, .STERADIAN. ) SOLID_ANGLE_UNIT ( ) );
#128 = LINE ( 'NONE', #80, #76 ) ;
#129 = VECTOR ( 'NONE', #70, 1000.000000000000200 ) ;
#130 = CARTESIAN_POINT ( 'NONE',  ( 53.51169519908899700, 9.500000000000000000, -8.540049759284750400 ) ) ;
#131 = APPLICATION_CONTEXT ( 'automotive_design' ) ;
#132 = FACE_OUTER_BOUND ( 'NONE', #328, .T. ) ;
#133 = CARTESIAN_POINT ( 'NONE',  ( 53.51169519908899700, 9.500000000000000000, -8.540049759284748600 ) ) ;
#134 = AXIS2_PLACEMENT_3D ( 'NONE', #120, #253, #116 ) ;
#135 =( LENGTH_UNIT ( ) NAMED_UNIT ( * ) SI_UNIT ( .MILLI., .METRE. ) );
#136 = LINE ( 'NONE', #331, #246 ) ;
#137 = FACE_OUTER_BOUND ( 'NONE', #49, .T. ) ;
#138 = CYLINDRICAL_SURFACE ( 'NONE', #71, 15.50000000000000000 ) ;
#139 = AXIS2_PLACEMENT_3D ( 'NONE', #307, #39, #64 ) ;
#140 = ORIENTED_EDGE ( 'NONE', *, *, #239, .F. ) ;
#141 = ORIENTED_EDGE ( 'NONE', *, *, #125, .F. ) ;
#142 = PRESENTATION_STYLE_ASSIGNMENT (( #317 ) ) ;
#143 = LINE ( 'NONE', #230, #251 ) ;
#144 = DIRECTION ( 'NONE',  ( -0.0000000000000000000, 1.000000000000000000, -0.0000000000000000000 ) ) ;
#145 = EDGE_CURVE ( 'NONE', #324, #260, #241, .T. ) ;
#146 = PLANE ( 'NONE',  #193 ) ;
#147 = ORIENTED_EDGE ( 'NONE', *, *, #267, .T. ) ;
#148 = ORIENTED_EDGE ( 'NONE', *, *, #229, .F. ) ;
#149 = DIRECTION ( 'NONE',  ( -0.2588190451025089200, 0.0000000000000000000, 0.9659258262890714200 ) ) ;
#150 = CARTESIAN_POINT ( 'NONE',  ( -49.50000000000000000, -9.500000000000000000, 6.431800548195809600 ) ) ;
#151 = ORIENTED_EDGE ( 'NONE', *, *, #181, .F. ) ;
#152 = CARTESIAN_POINT ( 'NONE',  ( 53.12346663143529900, 9.500000000000000000, -7.091161019851153200 ) ) ;
#153 = EDGE_CURVE ( 'NONE', #89, #211, #298, .T. ) ;
#154 = DIRECTION ( 'NONE',  ( 0.0000000000000000000, 0.0000000000000000000, -1.000000000000000000 ) ) ;
#155 = EDGE_CURVE ( 'NONE', #211, #254, #222, .T. ) ;
#156 = DIRECTION ( 'NONE',  ( 0.0000000000000000000, -1.000000000000000000, 5.151219052560429400E-033 ) ) ;
#157 = PRESENTATION_STYLE_ASSIGNMENT (( #209 ) ) ;
#158 = CARTESIAN_POINT ( 'NONE',  ( -49.50000000000000000, 9.500000000000000000, 21.93180054819579900 ) ) ;
#159 = FILL_AREA_STYLE ('',( #23 ) ) ;
#160 = VERTEX_POINT ( 'NONE', #252 ) ;
#161 = AXIS2_PLACEMENT_3D ( 'NONE', #301, #144, #199 ) ;
#162 = CIRCLE ( 'NONE', #31, 15.50000000000000000 ) ;
#163 = ORIENTED_EDGE ( 'NONE', *, *, #283, .T. ) ;
#164 = FILL_AREA_STYLE ('',( #184 ) ) ;
#165 = MECHANICAL_DESIGN_GEOMETRIC_PRESENTATION_REPRESENTATION (  '', ( #10 ), #53 ) ;
#166 = ADVANCED_BREP_SHAPE_REPRESENTATION ( '6750030_CNAJF00', ( #300, #98 ), #220 ) ;
#167 = ORIENTED_EDGE ( 'NONE', *, *, #179, .F. ) ;
#168 = VECTOR ( 'NONE', #330, 1000.000000000000000 ) ;
#169 = ADVANCED_FACE ( 'NONE', ( #118 ), #146, .T. ) ;
#170 = DIRECTION ( 'NONE',  ( 0.0000000000000000000, -1.000000000000000000, 0.0000000000000000000 ) ) ;
#171 = PRODUCT_DEFINITION ( 'UNKNOWN', '', #189, #106 ) ;
#172 = LINE ( 'NONE', #133, #175 ) ;
#173 = CARTESIAN_POINT ( 'NONE',  ( 49.50000000000000000, -9.500000000000000000, 20.43180054819579900 ) ) ;
#174 = DIRECTION ( 'NONE',  ( 0.0000000000000000000, -1.000000000000000000, 5.151219052560429400E-033 ) ) ;
#175 = VECTOR ( 'NONE', #107, 1000.000000000000200 ) ;
#176 = VECTOR ( 'NONE', #33, 1000.000000000000000 ) ;
#177 = AXIS2_PLACEMENT_3D ( 'NONE', #288, #22, #96 ) ;
#178 = DIRECTION ( 'NONE',  ( -3.588599675556060000E-017, 0.0000000000000000000, -1.000000000000000000 ) ) ;
#179 = EDGE_CURVE ( 'NONE', #243, #79, #308, .T. ) ;
#180 = VECTOR ( 'NONE', #247, 1000.000000000000000 ) ;
#181 = EDGE_CURVE ( 'NONE', #83, #60, #210, .T. ) ;
#182 = APPLICATION_PROTOCOL_DEFINITION ( 'draft international standard', 'automotive_design', 1998, #131 ) ;
#183 = ORIENTED_EDGE ( 'NONE', *, *, #155, .F. ) ;
#184 = FILL_AREA_STYLE_COLOUR ( '', #52 ) ;
#185 = FACE_OUTER_BOUND ( 'NONE', #38, .T. ) ;
#186 = EDGE_LOOP ( 'NONE', ( #93, #327, #11, #219, #315, #141, #123, #148 ) ) ;
#187 = CARTESIAN_POINT ( 'NONE',  ( 49.50000000000000000, -9.500000000000000000, 21.93180054819581000 ) ) ;
#188 = CLOSED_SHELL ( 'NONE', ( #169, #4, #194, #221, #50, #110, #12, #228, #275, #91 ) ) ;
#189 = PRODUCT_DEFINITION_FORMATION_WITH_SPECIFIED_SOURCE ( 'ANY', '', #304, .NOT_KNOWN. ) ;
#190 = EDGE_LOOP ( 'NONE', ( #227, #163, #195, #8 ) ) ;
#191 = VECTOR ( 'NONE', #201, 1000.000000000000000 ) ;
#192 = ORIENTED_EDGE ( 'NONE', *, *, #109, .F. ) ;
#193 = AXIS2_PLACEMENT_3D ( 'NONE', #332, #178, #121 ) ;
#194 = ADVANCED_FACE ( 'NONE', ( #41 ), #100, .T. ) ;
#195 = ORIENTED_EDGE ( 'NONE', *, *, #65, .T. ) ;
#196 = CARTESIAN_POINT ( 'NONE',  ( -53.12346663143529900, -9.500000000000000000, -7.091161019851141700 ) ) ;
#197 = EDGE_LOOP ( 'NONE', ( #183, #115, #285, #265 ) ) ;
#198 = DIRECTION ( 'NONE',  ( -0.0000000000000000000, 1.000000000000000000, -0.0000000000000000000 ) ) ;
#199 = DIRECTION ( 'NONE',  ( 0.0000000000000000000, 0.0000000000000000000, -1.000000000000000000 ) ) ;
#200 = LINE ( 'NONE', #306, #129 ) ;
#201 = DIRECTION ( 'NONE',  ( 0.0000000000000000000, 1.000000000000000000, 0.0000000000000000000 ) ) ;
#202 = VERTEX_POINT ( 'NONE', #101 ) ;
#203 = DIRECTION ( 'NONE',  ( -0.0000000000000000000, 1.000000000000000000, -0.0000000000000000000 ) ) ;
#204 = VECTOR ( 'NONE', #293, 1000.000000000000000 ) ;
#205 = ORIENTED_EDGE ( 'NONE', *, *, #153, .F. ) ;
#206 = CARTESIAN_POINT ( 'NONE',  ( 49.50000000000000000, 9.500000000000000000, 20.43180054819579900 ) ) ;
#207 = EDGE_CURVE ( 'NONE', #79, #255, #226, .T. ) ;
#208 = CARTESIAN_POINT ( 'NONE',  ( -49.50000000000000000, 9.500000000000000000, 6.431800548195809600 ) ) ;
#209 = SURFACE_STYLE_USAGE ( .BOTH. , #212 ) ;
#210 = CIRCLE ( 'NONE', #312, 14.00000000000000000 ) ;
#211 = VERTEX_POINT ( 'NONE', #20 ) ;
#212 = SURFACE_SIDE_STYLE ('',( #232 ) ) ;
#213 = APPLICATION_CONTEXT ( 'automotive_design' ) ;
#214 = ORIENTED_EDGE ( 'NONE', *, *, #249, .F. ) ;
#215 = PRESENTATION_LAYER_ASSIGNMENT (  '', '', ( #10 ) ) ;
#216 = SURFACE_SIDE_STYLE ('',( #323 ) ) ;
#217 = FACE_OUTER_BOUND ( 'NONE', #45, .T. ) ;
#218 = CARTESIAN_POINT ( 'NONE',  ( -53.51169519908907500, 9.500000000000000000, -8.540049759284746900 ) ) ;
#219 = ORIENTED_EDGE ( 'NONE', *, *, #114, .T. ) ;
#220 =( GEOMETRIC_REPRESENTATION_CONTEXT ( 3 ) GLOBAL_UNCERTAINTY_ASSIGNED_CONTEXT ( ( #87 ) ) GLOBAL_UNIT_ASSIGNED_CONTEXT ( ( #135, #319, #127 ) ) REPRESENTATION_CONTEXT ( 'NONE', 'WORKASPACE' ) );
#221 = ADVANCED_FACE ( 'NONE', ( #185 ), #333, .F. ) ;
#222 = CIRCLE ( 'NONE', #268, 15.50000000000000000 ) ;
#223 = ORIENTED_EDGE ( 'NONE', *, *, #46, .F. ) ;
#224 = EDGE_LOOP ( 'NONE', ( #266, #56, #281, #271 ) ) ;
#225 = CARTESIAN_POINT ( 'NONE',  ( -53.51169519908909700, 9.500000000000000000, -8.540049759284741500 ) ) ;
#226 = CIRCLE ( 'NONE', #48, 14.00000000000000000 ) ;
#227 = ORIENTED_EDGE ( 'NONE', *, *, #267, .F. ) ;
#228 = ADVANCED_FACE ( 'NONE', ( #137 ), #124, .T. ) ;
#229 = EDGE_CURVE ( 'NONE', #160, #324, #297, .T. ) ;
#230 = CARTESIAN_POINT ( 'NONE',  ( -49.50000000000000000, 9.500000000000000000, 21.93180054819579900 ) ) ;
#231 = DIRECTION ( 'NONE',  ( 1.000000000000000000, 0.0000000000000000000, 0.0000000000000000000 ) ) ;
#232 = SURFACE_STYLE_FILL_AREA ( #159 ) ;
#233 = CARTESIAN_POINT ( 'NONE',  ( -49.50000000000000000, 9.500000000000000000, 21.93180054819579900 ) ) ;
#234 = ORIENTED_EDGE ( 'NONE', *, *, #114, .F. ) ;
#235 = PLANE ( 'NONE',  #139 ) ;
#236 = LINE ( 'NONE', #43, #284 ) ;
#237 = ORIENTED_EDGE ( 'NONE', *, *, #239, .T. ) ;
#238 = DIRECTION ( 'NONE',  ( -0.0000000000000000000, -1.000000000000000000, -0.0000000000000000000 ) ) ;
#239 = EDGE_CURVE ( 'NONE', #202, #83, #294, .T. ) ;
#240 = DIRECTION ( 'NONE',  ( 0.0000000000000000000, -1.000000000000000000, 0.0000000000000000000 ) ) ;
#241 = LINE ( 'NONE', #277, #168 ) ;
#242 = DIRECTION ( 'NONE',  ( 0.0000000000000000000, -1.000000000000000000, 0.0000000000000000000 ) ) ;
#243 = VERTEX_POINT ( 'NONE', #74 ) ;
#244 = CYLINDRICAL_SURFACE ( 'NONE', #336, 15.50000000000000000 ) ;
#245 = UNCERTAINTY_MEASURE_WITH_UNIT (LENGTH_MEASURE( 1.000000000000000100E-005 ), #316, 'distance_accuracy_value', 'NONE');
#246 = VECTOR ( 'NONE', #250, 1000.000000000000000 ) ;
#247 = DIRECTION ( 'NONE',  ( 0.0000000000000000000, -1.000000000000000000, 0.0000000000000000000 ) ) ;
#248 = PRESENTATION_LAYER_ASSIGNMENT (  '', '', ( #34 ) ) ;
#249 = EDGE_CURVE ( 'NONE', #255, #63, #236, .T. ) ;
#250 = DIRECTION ( 'NONE',  ( 1.000000000000000000, -0.0000000000000000000, -3.588599675556060000E-017 ) ) ;
#251 = VECTOR ( 'NONE', #174, 1000.000000000000000 ) ;
#252 = CARTESIAN_POINT ( 'NONE',  ( -53.51169519908909700, -9.500000000000000000, -8.540049759284743300 ) ) ;
#253 = DIRECTION ( 'NONE',  ( -0.0000000000000000000, 1.000000000000000000, -0.0000000000000000000 ) ) ;
#254 = VERTEX_POINT ( 'NONE', #311 ) ;
#255 = VERTEX_POINT ( 'NONE', #206 ) ;
#256 = VECTOR ( 'NONE', #320, 1000.000000000000000 ) ;
#257 = ORIENTED_EDGE ( 'NONE', *, *, #249, .T. ) ;
#258 = DIRECTION ( 'NONE',  ( 0.0000000000000000000, -0.0000000000000000000, 1.000000000000000000 ) ) ;
#259 = DIRECTION ( 'NONE',  ( -0.0000000000000000000, 1.000000000000000000, -0.0000000000000000000 ) ) ;
#260 = VERTEX_POINT ( 'NONE', #187 ) ;
#261 = APPLICATION_PROTOCOL_DEFINITION ( 'draft international standard', 'automotive_design', 1998, #213 ) ;
#262 = CIRCLE ( 'NONE', #67, 15.50000000000000000 ) ;
#263 = CARTESIAN_POINT ( 'NONE',  ( -49.50000000000000000, -9.500000000000000000, 21.93180054819579900 ) ) ;
#264 = MECHANICAL_DESIGN_GEOMETRIC_PRESENTATION_REPRESENTATION (  '', ( #34 ), #28 ) ;
#265 = ORIENTED_EDGE ( 'NONE', *, *, #283, .F. ) ;
#266 = ORIENTED_EDGE ( 'NONE', *, *, #109, .T. ) ;
#267 = EDGE_CURVE ( 'NONE', #254, #79, #172, .T. ) ;
#268 = AXIS2_PLACEMENT_3D ( 'NONE', #37, #198, #73 ) ;
#269 = DIRECTION ( 'NONE',  ( -0.2588190451025295100, 0.0000000000000000000, -0.9659258262890659800 ) ) ;
#270 = EDGE_LOOP ( 'NONE', ( #147, #338, #223, #2, #192, #72, #295, #321 ) ) ;
#271 = ORIENTED_EDGE ( 'NONE', *, *, #15, .F. ) ;
#272 = CARTESIAN_POINT ( 'NONE',  ( 49.50000000000000000, -9.500000000000000000, 20.43180054819579900 ) ) ;
#273 = LINE ( 'NONE', #54, #204 ) ;
#274 = VERTEX_POINT ( 'NONE', #218 ) ;
#275 = ADVANCED_FACE ( 'NONE', ( #217 ), #244, .T. ) ;
#276 = AXIS2_PLACEMENT_3D ( 'NONE', #150, #203, #44 ) ;
#277 = CARTESIAN_POINT ( 'NONE',  ( -0.06429147099382140400, -9.500000000000000000, 21.93180054819579900 ) ) ;
#278 = CARTESIAN_POINT ( 'NONE',  ( 53.51169519908899700, 9.500000000000000000, -8.540049759284750400 ) ) ;
#279 = DIRECTION ( 'NONE',  ( -0.0000000000000000000, 1.000000000000000000, 0.0000000000000000000 ) ) ;
#280 = PLANE ( 'NONE',  #104 ) ;
#281 = ORIENTED_EDGE ( 'NONE', *, *, #29, .T. ) ;
#282 = ORIENTED_EDGE ( 'NONE', *, *, #15, .T. ) ;
#283 = EDGE_CURVE ( 'NONE', #254, #58, #112, .T. ) ;
#284 = VECTOR ( 'NONE', #238, 1000.000000000000000 ) ;
#285 = ORIENTED_EDGE ( 'NONE', *, *, #125, .T. ) ;
#286 = CARTESIAN_POINT ( 'NONE',  ( -49.50000000000000000, 9.500000000000000000, 6.431800548195809600 ) ) ;
#287 = EDGE_CURVE ( 'NONE', #274, #89, #162, .T. ) ;
#288 = CARTESIAN_POINT ( 'NONE',  ( -0.06429147099382140400, 9.500000000000000000, 14.75601484475859900 ) ) ;
#289 = EDGE_CURVE ( 'NONE', #211, #260, #273, .T. ) ;
#290 = DIRECTION ( 'NONE',  ( 8.953411488912552700E-016, 0.0000000000000000000, -1.000000000000000000 ) ) ;
#291 =( NAMED_UNIT ( * ) SI_UNIT ( $, .STERADIAN. ) SOLID_ANGLE_UNIT ( ) );
#292 = ORIENTED_EDGE ( 'NONE', *, *, #90, .F. ) ;
#293 = DIRECTION ( 'NONE',  ( 0.0000000000000000000, -1.000000000000000000, 0.0000000000000000000 ) ) ;
#294 = LINE ( 'NONE', #310, #191 ) ;
#295 = ORIENTED_EDGE ( 'NONE', *, *, #153, .T. ) ;
#296 = COLOUR_RGB ( '',0.7529411764705882200, 0.7529411764705882200, 0.7529411764705882200 ) ;
#297 = CIRCLE ( 'NONE', #276, 15.50000000000000000 ) ;
#298 = LINE ( 'NONE', #36, #9 ) ;
#299 = AXIS2_PLACEMENT_3D ( 'NONE', #158, #19, #156 ) ;
#300 = MANIFOLD_SOLID_BREP ( 'Importiert1', #188 ) ;
#301 = CARTESIAN_POINT ( 'NONE',  ( 49.50000000000000000, -9.500000000000000000, 6.431800548195799800 ) ) ;
#302 = CARTESIAN_POINT ( 'NONE',  ( 49.50000000000000000, -9.500000000000000000, 6.431800548195820300 ) ) ;
#303 = AXIS2_PLACEMENT_3D ( 'NONE', #30, #326, #59 ) ;
#304 = PRODUCT ( '6750030_CNAJF00', '6750030_CNAJF00', '', ( #77 ) ) ;
#305 = DIRECTION ( 'NONE',  ( -0.0000000000000000000, 1.000000000000000000, -0.0000000000000000000 ) ) ;
#306 = CARTESIAN_POINT ( 'NONE',  ( 53.51169519908899700, -9.500000000000000000, -8.540049759284748600 ) ) ;
#307 = CARTESIAN_POINT ( 'NONE',  ( -53.12346663143529900, 9.500000000000000000, -7.091161019851139900 ) ) ;
#308 = LINE ( 'NONE', #152, #5 ) ;
#309 = FACE_OUTER_BOUND ( 'NONE', #190, .T. ) ;
#310 = CARTESIAN_POINT ( 'NONE',  ( -49.50000000000000000, 9.500000000000000000, 20.43180054819580200 ) ) ;
#311 = CARTESIAN_POINT ( 'NONE',  ( 53.51169519908900400, 9.500000000000000000, -8.540049759284754000 ) ) ;
#312 = AXIS2_PLACEMENT_3D ( 'NONE', #18, #99, #126 ) ;
#313 = ORIENTED_EDGE ( 'NONE', *, *, #229, .T. ) ;
#314 = CARTESIAN_POINT ( 'NONE',  ( 49.50000000000000000, 9.500000000000000000, 6.431800548195799800 ) ) ;
#315 = ORIENTED_EDGE ( 'NONE', *, *, #65, .F. ) ;
#316 =( LENGTH_UNIT ( ) NAMED_UNIT ( * ) SI_UNIT ( .MILLI., .METRE. ) );
#317 = SURFACE_STYLE_USAGE ( .BOTH. , #216 ) ;
#318 = LINE ( 'NONE', #173, #176 ) ;
#319 =( NAMED_UNIT ( * ) PLANE_ANGLE_UNIT ( ) SI_UNIT ( $, .RADIAN. ) );
#320 = DIRECTION ( 'NONE',  ( -0.0000000000000000000, -1.000000000000000000, -0.0000000000000000000 ) ) ;
#321 = ORIENTED_EDGE ( 'NONE', *, *, #155, .T. ) ;
#322 = EDGE_CURVE ( 'NONE', #60, #24, #128, .T. ) ;
#323 = SURFACE_STYLE_FILL_AREA ( #164 ) ;
#324 = VERTEX_POINT ( 'NONE', #263 ) ;
#325 = CARTESIAN_POINT ( 'NONE',  ( -53.12346663143529900, -9.500000000000000000, -7.091161019851143400 ) ) ;
#326 = DIRECTION ( 'NONE',  ( 0.0000000000000000000, -1.000000000000000000, 0.0000000000000000000 ) ) ;
#327 = ORIENTED_EDGE ( 'NONE', *, *, #90, .T. ) ;
#328 = EDGE_LOOP ( 'NONE', ( #234, #214, #88, #167 ) ) ;
#329 = AXIS2_PLACEMENT_3D ( 'NONE', #278, #40, #149 ) ;
#330 = DIRECTION ( 'NONE',  ( 1.000000000000000000, 0.0000000000000000000, 0.0000000000000000000 ) ) ;
#331 = CARTESIAN_POINT ( 'NONE',  ( 49.50000000000000000, 9.500000000000000000, 20.43180054819579900 ) ) ;
#332 = CARTESIAN_POINT ( 'NONE',  ( 49.50000000000000000, 9.500000000000000000, 20.43180054819579900 ) ) ;
#333 = CYLINDRICAL_SURFACE ( 'NONE', #3, 14.00000000000000000 ) ;
#334 = VECTOR ( 'NONE', #269, 1000.000000000000000 ) ;
#335 = CARTESIAN_POINT ( 'NONE',  ( 53.12346663143529900, 9.500000000000000000, -7.091161019851154100 ) ) ;
#336 = AXIS2_PLACEMENT_3D ( 'NONE', #208, #97, #85 ) ;
#337 = DIRECTION ( 'NONE',  ( 0.0000000000000000000, -1.000000000000000000, 0.0000000000000000000 ) ) ;
#338 = ORIENTED_EDGE ( 'NONE', *, *, #207, .T. ) ;
#339 = DIRECTION ( 'NONE',  ( 0.0000000000000000000, 0.0000000000000000000, -1.000000000000000000 ) ) ;
#340 =( NAMED_UNIT ( * ) SI_UNIT ( $, .STERADIAN. ) SOLID_ANGLE_UNIT ( ) );
#341 = CARTESIAN_POINT ( 'NONE',  ( 0.0000000000000000000, 0.0000000000000000000, 0.0000000000000000000 ) ) ;
#342 = ORIENTED_EDGE ( 'NONE', *, *, #289, .F. ) ;
ENDSEC;
END-ISO-10303-21;
