ISO-10303-21;
HEADER;
FILE_DESCRIPTION (( 'STEP AP214' ),
    '1' );
FILE_NAME ('6901101',
    '2019-01-31T12:06:29',
    ( '' ),
    ('JUGARD+KÜNSTNER GmbH'),
    'SwSTEP 2.0',
    'SolidWorks 2017',
    '' );
FILE_SCHEMA (( 'AUTOMOTIVE_DESIGN' ));
ENDSEC;

DATA;
#1 = CARTESIAN_POINT ( 'NONE',  ( -14.00000000000000000, -14.00000000000000200, 100.0000000000000000 ) ) ;
#2 = ORIENTED_EDGE ( 'NONE', *, *, #11, .F. ) ;
#3 = VECTOR ( 'NONE', #199, 1000.000000000000000 ) ;
#4 = MECHANICAL_DESIGN_GEOMETRIC_PRESENTATION_REPRESENTATION (  '', ( #128 ), #19 ) ;
#5 = DIRECTION ( 'NONE',  ( -0.0000000000000000000, 0.0000000000000000000, 1.000000000000000000 ) ) ;
#6 = DIRECTION ( 'NONE',  ( 1.000000000000000000, 0.0000000000000000000, 0.0000000000000000000 ) ) ;
#7 = PLANE ( 'NONE',  #110 ) ;
#8 = FACE_OUTER_BOUND ( 'NONE', #141, .T. ) ;
#9 = ORIENTED_EDGE ( 'NONE', *, *, #181, .F. ) ;
#10 =( LENGTH_UNIT ( ) NAMED_UNIT ( * ) SI_UNIT ( .MILLI., .METRE. ) );
#11 = EDGE_CURVE ( 'NONE', #89, #195, #28, .T. ) ;
#12 = ORIENTED_EDGE ( 'NONE', *, *, #25, .F. ) ;
#13 = CARTESIAN_POINT ( 'NONE',  ( 20.99999999999999600, 21.00000000000000400, 0.0000000000000000000 ) ) ;
#14 = CARTESIAN_POINT ( 'NONE',  ( 21.00000000000000400, 21.00000000000000000, 0.0000000000000000000 ) ) ;
#15 = DIRECTION ( 'NONE',  ( 0.0000000000000000000, 0.0000000000000000000, 1.000000000000000000 ) ) ;
#16 = LINE ( 'NONE', #125, #85 ) ;
#17 = PRODUCT_RELATED_PRODUCT_CATEGORY ( 'part', '', ( #190 ) ) ;
#18 = SURFACE_STYLE_FILL_AREA ( #179 ) ;
#19 =( GEOMETRIC_REPRESENTATION_CONTEXT ( 3 ) GLOBAL_UNCERTAINTY_ASSIGNED_CONTEXT ( ( #97 ) ) GLOBAL_UNIT_ASSIGNED_CONTEXT ( ( #10, #26, #172 ) ) REPRESENTATION_CONTEXT ( 'NONE', 'WORKASPACE' ) );
#20 =( NAMED_UNIT ( * ) SI_UNIT ( $, .STERADIAN. ) SOLID_ANGLE_UNIT ( ) );
#21 = PRESENTATION_STYLE_ASSIGNMENT (( #121 ) ) ;
#22 = ORIENTED_EDGE ( 'NONE', *, *, #87, .T. ) ;
#23 = VECTOR ( 'NONE', #109, 1000.000000000000000 ) ;
#24 = CLOSED_SHELL ( 'NONE', ( #56, #193, #40, #71, #122, #106 ) ) ;
#25 = EDGE_CURVE ( 'NONE', #155, #195, #33, .T. ) ;
#26 =( NAMED_UNIT ( * ) PLANE_ANGLE_UNIT ( ) SI_UNIT ( $, .RADIAN. ) );
#27 = VECTOR ( 'NONE', #30, 1000.000000000000000 ) ;
#28 = LINE ( 'NONE', #75, #68 ) ;
#29 = DIRECTION ( 'NONE',  ( -1.000000000000000000, -0.0000000000000000000, -0.0000000000000000000 ) ) ;
#30 = DIRECTION ( 'NONE',  ( 0.0000000000000000000, -1.000000000000000000, -0.0000000000000000000 ) ) ;
#31 = PRODUCT_CONTEXT ( 'NONE', #113, 'mechanical' ) ;
#32 = CARTESIAN_POINT ( 'NONE',  ( -14.00000000000000000, -14.00000000000000000, 100.0000000000000000 ) ) ;
#33 = LINE ( 'NONE', #157, #23 ) ;
#34 = ORIENTED_EDGE ( 'NONE', *, *, #183, .T. ) ;
#35 = VECTOR ( 'NONE', #42, 1000.000000000000000 ) ;
#36 = ORIENTED_EDGE ( 'NONE', *, *, #161, .T. ) ;
#37 =( LENGTH_UNIT ( ) NAMED_UNIT ( * ) SI_UNIT ( .MILLI., .METRE. ) );
#38 = VECTOR ( 'NONE', #133, 1000.000000000000000 ) ;
#39 = FACE_OUTER_BOUND ( 'NONE', #54, .T. ) ;
#40 = ADVANCED_FACE ( 'NONE', ( #8 ), #7, .F. ) ;
#41 = FACE_OUTER_BOUND ( 'NONE', #200, .T. ) ;
#42 = DIRECTION ( 'NONE',  ( 0.0000000000000000000, 0.0000000000000000000, 1.000000000000000000 ) ) ;
#43 = VECTOR ( 'NONE', #29, 1000.000000000000000 ) ;
#44 = DIRECTION ( 'NONE',  ( 0.0000000000000000000, 0.0000000000000000000, 1.000000000000000000 ) ) ;
#45 = EDGE_CURVE ( 'NONE', #89, #96, #16, .T. ) ;
#46 = ORIENTED_EDGE ( 'NONE', *, *, #11, .T. ) ;
#47 = MECHANICAL_DESIGN_GEOMETRIC_PRESENTATION_REPRESENTATION (  '', ( #150 ), #140 ) ;
#48 = SURFACE_STYLE_USAGE ( .BOTH. , #168 ) ;
#49 = VECTOR ( 'NONE', #127, 1000.000000000000000 ) ;
#50 = EDGE_CURVE ( 'NONE', #96, #173, #64, .T. ) ;
#51 = DIRECTION ( 'NONE',  ( 1.000000000000000000, 0.0000000000000000000, -0.0000000000000000000 ) ) ;
#52 = FACE_OUTER_BOUND ( 'NONE', #152, .T. ) ;
#53 = AXIS2_PLACEMENT_3D ( 'NONE', #60, #44, #91 ) ;
#54 = EDGE_LOOP ( 'NONE', ( #65, #81, #145, #137 ) ) ;
#55 = ORIENTED_EDGE ( 'NONE', *, *, #86, .T. ) ;
#56 = ADVANCED_FACE ( 'NONE', ( #52 ), #82, .F. ) ;
#57 = FILL_AREA_STYLE_COLOUR ( '', #189 ) ;
#58 = ORIENTED_EDGE ( 'NONE', *, *, #45, .F. ) ;
#59 =( NAMED_UNIT ( * ) PLANE_ANGLE_UNIT ( ) SI_UNIT ( $, .RADIAN. ) );
#60 = CARTESIAN_POINT ( 'NONE',  ( -14.00000000000000000, 21.00000000000000000, 0.0000000000000000000 ) ) ;
#61 = VECTOR ( 'NONE', #72, 1000.000000000000000 ) ;
#62 = CARTESIAN_POINT ( 'NONE',  ( -14.00000000000000200, 21.00000000000000000, 0.0000000000000000000 ) ) ;
#63 = PLANE ( 'NONE',  #99 ) ;
#64 = LINE ( 'NONE', #120, #187 ) ;
#65 = ORIENTED_EDGE ( 'NONE', *, *, #181, .T. ) ;
#66 = CARTESIAN_POINT ( 'NONE',  ( 21.00000000000000000, -14.00000000000000000, 100.0000000000000000 ) ) ;
#67 =( NAMED_UNIT ( * ) PLANE_ANGLE_UNIT ( ) SI_UNIT ( $, .RADIAN. ) );
#68 = VECTOR ( 'NONE', #142, 1000.000000000000000 ) ;
#69 = ORIENTED_EDGE ( 'NONE', *, *, #87, .F. ) ;
#70 = DIRECTION ( 'NONE',  ( -1.000000000000000000, -1.982541115402059900E-016, 0.0000000000000000000 ) ) ;
#71 = ADVANCED_FACE ( 'NONE', ( #80 ), #162, .T. ) ;
#72 = DIRECTION ( 'NONE',  ( -0.0000000000000000000, 1.000000000000000000, 0.0000000000000000000 ) ) ;
#73 = PRODUCT_DEFINITION_FORMATION_WITH_SPECIFIED_SOURCE ( 'ANY', '', #190, .NOT_KNOWN. ) ;
#74 = ORIENTED_EDGE ( 'NONE', *, *, #50, .T. ) ;
#75 = CARTESIAN_POINT ( 'NONE',  ( -14.00000000000000000, 21.00000000000000000, 0.0000000000000000000 ) ) ;
#76 = DIRECTION ( 'NONE',  ( 1.000000000000000000, 0.0000000000000000000, 0.0000000000000000000 ) ) ;
#77 =( LENGTH_UNIT ( ) NAMED_UNIT ( * ) SI_UNIT ( .MILLI., .METRE. ) );
#78 = DIRECTION ( 'NONE',  ( 1.000000000000000000, 0.0000000000000000000, -0.0000000000000000000 ) ) ;
#79 = CARTESIAN_POINT ( 'NONE',  ( 21.00000000000000000, 21.00000000000000000, 100.0000000000000000 ) ) ;
#80 = FACE_OUTER_BOUND ( 'NONE', #100, .T. ) ;
#81 = ORIENTED_EDGE ( 'NONE', *, *, #161, .F. ) ;
#82 = PLANE ( 'NONE',  #196 ) ;
#83 = FILL_AREA_STYLE_COLOUR ( '', #151 ) ;
#84 = APPLICATION_PROTOCOL_DEFINITION ( 'draft international standard', 'automotive_design', 1998, #132 ) ;
#85 = VECTOR ( 'NONE', #76, 1000.000000000000000 ) ;
#86 = EDGE_CURVE ( 'NONE', #171, #155, #197, .T. ) ;
#87 = EDGE_CURVE ( 'NONE', #101, #96, #108, .T. ) ;
#88 = LINE ( 'NONE', #174, #3 ) ;
#89 = VERTEX_POINT ( 'NONE', #62 ) ;
#90 = CARTESIAN_POINT ( 'NONE',  ( 21.00000000000000000, 21.00000000000000000, 100.0000000000000000 ) ) ;
#91 = DIRECTION ( 'NONE',  ( 1.000000000000000000, 0.0000000000000000000, -0.0000000000000000000 ) ) ;
#92 = SURFACE_SIDE_STYLE ('',( #117 ) ) ;
#93 = PRODUCT_DEFINITION_SHAPE ( 'NONE', 'NONE',  #186 ) ;
#94 = CARTESIAN_POINT ( 'NONE',  ( 21.00000000000000400, -14.00000000000000200, 100.0000000000000000 ) ) ;
#95 = DIRECTION ( 'NONE',  ( 0.0000000000000000000, -0.0000000000000000000, -1.000000000000000000 ) ) ;
#96 = VERTEX_POINT ( 'NONE', #13 ) ;
#97 = UNCERTAINTY_MEASURE_WITH_UNIT (LENGTH_MEASURE( 1.000000000000000100E-005 ), #10, 'distance_accuracy_value', 'NONE');
#98 = CARTESIAN_POINT ( 'NONE',  ( -14.00000000000000000, 21.00000000000000000, 100.0000000000000000 ) ) ;
#99 = AXIS2_PLACEMENT_3D ( 'NONE', #32, #184, #115 ) ;
#100 = EDGE_LOOP ( 'NONE', ( #36, #131, #34, #55 ) ) ;
#101 = VERTEX_POINT ( 'NONE', #163 ) ;
#102 = ORIENTED_EDGE ( 'NONE', *, *, #183, .F. ) ;
#103 =( GEOMETRIC_REPRESENTATION_CONTEXT ( 3 ) GLOBAL_UNCERTAINTY_ASSIGNED_CONTEXT ( ( #118 ) ) GLOBAL_UNIT_ASSIGNED_CONTEXT ( ( #77, #59, #111 ) ) REPRESENTATION_CONTEXT ( 'NONE', 'WORKASPACE' ) );
#104 = CARTESIAN_POINT ( 'NONE',  ( -14.00000000000000200, 21.00000000000000000, 100.0000000000000000 ) ) ;
#105 = PRESENTATION_STYLE_ASSIGNMENT (( #48 ) ) ;
#106 = ADVANCED_FACE ( 'NONE', ( #39 ), #63, .F. ) ;
#107 = LINE ( 'NONE', #90, #43 ) ;
#108 = LINE ( 'NONE', #14, #49 ) ;
#109 = DIRECTION ( 'NONE',  ( 0.0000000000000000000, 0.0000000000000000000, -1.000000000000000000 ) ) ;
#110 = AXIS2_PLACEMENT_3D ( 'NONE', #146, #159, #123 ) ;
#111 =( NAMED_UNIT ( * ) SI_UNIT ( $, .STERADIAN. ) SOLID_ANGLE_UNIT ( ) );
#112 = LINE ( 'NONE', #1, #38 ) ;
#113 = APPLICATION_CONTEXT ( 'automotive_design' ) ;
#114 = DIRECTION ( 'NONE',  ( 0.0000000000000000000, -1.000000000000000000, 0.0000000000000000000 ) ) ;
#115 = DIRECTION ( 'NONE',  ( 0.0000000000000000000, -0.0000000000000000000, 1.000000000000000000 ) ) ;
#116 = EDGE_CURVE ( 'NONE', #195, #101, #194, .T. ) ;
#117 = SURFACE_STYLE_FILL_AREA ( #182 ) ;
#118 = UNCERTAINTY_MEASURE_WITH_UNIT (LENGTH_MEASURE( 1.000000000000000100E-005 ), #77, 'distance_accuracy_value', 'NONE');
#119 = CARTESIAN_POINT ( 'NONE',  ( -14.00000000000000000, -14.00000000000000200, 0.0000000000000000000 ) ) ;
#120 = CARTESIAN_POINT ( 'NONE',  ( 21.00000000000000000, 21.00000000000000000, 100.0000000000000000 ) ) ;
#121 = SURFACE_STYLE_USAGE ( .BOTH. , #92 ) ;
#122 = ADVANCED_FACE ( 'NONE', ( #158 ), #201, .F. ) ;
#123 = DIRECTION ( 'NONE',  ( 0.0000000000000000000, 0.0000000000000000000, -1.000000000000000000 ) ) ;
#124 = ORIENTED_EDGE ( 'NONE', *, *, #45, .T. ) ;
#125 = CARTESIAN_POINT ( 'NONE',  ( 21.00000000000000000, 21.00000000000000000, 0.0000000000000000000 ) ) ;
#126 = CARTESIAN_POINT ( 'NONE',  ( -14.00000000000000000, 21.00000000000000000, 100.0000000000000000 ) ) ;
#127 = DIRECTION ( 'NONE',  ( -0.0000000000000000000, 1.000000000000000000, 0.0000000000000000000 ) ) ;
#128 = STYLED_ITEM ( 'NONE', ( #21 ), #202 ) ;
#129 = SHAPE_DEFINITION_REPRESENTATION ( #93, #202 ) ;
#130 = AXIS2_PLACEMENT_3D ( 'NONE', #188, #70, #177 ) ;
#131 = ORIENTED_EDGE ( 'NONE', *, *, #134, .T. ) ;
#132 = APPLICATION_CONTEXT ( 'automotive_design' ) ;
#133 = DIRECTION ( 'NONE',  ( 1.000000000000000000, 0.0000000000000000000, -0.0000000000000000000 ) ) ;
#134 = EDGE_CURVE ( 'NONE', #191, #173, #154, .T. ) ;
#135 = MANIFOLD_SOLID_BREP ( 'Importiert1', #24 ) ;
#136 = EDGE_LOOP ( 'NONE', ( #74, #138, #9, #22 ) ) ;
#137 = ORIENTED_EDGE ( 'NONE', *, *, #116, .T. ) ;
#138 = ORIENTED_EDGE ( 'NONE', *, *, #134, .F. ) ;
#139 = CARTESIAN_POINT ( 'NONE',  ( 20.99999999999999600, 21.00000000000000400, 100.0000000000000000 ) ) ;
#140 =( GEOMETRIC_REPRESENTATION_CONTEXT ( 3 ) GLOBAL_UNCERTAINTY_ASSIGNED_CONTEXT ( ( #170 ) ) GLOBAL_UNIT_ASSIGNED_CONTEXT ( ( #37, #67, #20 ) ) REPRESENTATION_CONTEXT ( 'NONE', 'WORKASPACE' ) );
#141 = EDGE_LOOP ( 'NONE', ( #12, #149, #175, #46 ) ) ;
#142 = DIRECTION ( 'NONE',  ( 0.0000000000000000000, -1.000000000000000000, -0.0000000000000000000 ) ) ;
#143 = APPLICATION_PROTOCOL_DEFINITION ( 'draft international standard', 'automotive_design', 1998, #113 ) ;
#144 = PLANE ( 'NONE',  #53 ) ;
#145 = ORIENTED_EDGE ( 'NONE', *, *, #25, .T. ) ;
#146 = CARTESIAN_POINT ( 'NONE',  ( -14.00000000000000000, 21.00000000000000000, 100.0000000000000000 ) ) ;
#147 = DIRECTION ( 'NONE',  ( 0.0000000000000000000, 0.0000000000000000000, 1.000000000000000000 ) ) ;
#148 = LINE ( 'NONE', #66, #35 ) ;
#149 = ORIENTED_EDGE ( 'NONE', *, *, #86, .F. ) ;
#150 = STYLED_ITEM ( 'NONE', ( #105 ), #135 ) ;
#151 = COLOUR_RGB ( '',0.5137254901960783800, 0.5450980392156862300, 0.5450980392156862300 ) ;
#152 = EDGE_LOOP ( 'NONE', ( #185, #102, #169, #58 ) ) ;
#153 = CARTESIAN_POINT ( 'NONE',  ( 21.00000000000000400, 21.00000000000000000, 100.0000000000000000 ) ) ;
#154 = LINE ( 'NONE', #153, #61 ) ;
#155 = VERTEX_POINT ( 'NONE', #166 ) ;
#156 = PRESENTATION_LAYER_ASSIGNMENT (  '', '', ( #128 ) ) ;
#157 = CARTESIAN_POINT ( 'NONE',  ( -14.00000000000000000, -14.00000000000000200, 100.0000000000000000 ) ) ;
#158 = FACE_OUTER_BOUND ( 'NONE', #136, .T. ) ;
#159 = DIRECTION ( 'NONE',  ( 1.000000000000000000, 0.0000000000000000000, 0.0000000000000000000 ) ) ;
#160 = CARTESIAN_POINT ( 'NONE',  ( 0.0000000000000000000, 0.0000000000000000000, 0.0000000000000000000 ) ) ;
#161 = EDGE_CURVE ( 'NONE', #155, #191, #112, .T. ) ;
#162 = PLANE ( 'NONE',  #192 ) ;
#163 = CARTESIAN_POINT ( 'NONE',  ( 21.00000000000000400, -14.00000000000000200, 0.0000000000000000000 ) ) ;
#164 = ORIENTED_EDGE ( 'NONE', *, *, #116, .F. ) ;
#165 = AXIS2_PLACEMENT_3D ( 'NONE', #160, #147, #6 ) ;
#166 = CARTESIAN_POINT ( 'NONE',  ( -14.00000000000000000, -14.00000000000000200, 100.0000000000000000 ) ) ;
#167 = EDGE_CURVE ( 'NONE', #171, #89, #88, .T. ) ;
#168 = SURFACE_SIDE_STYLE ('',( #18 ) ) ;
#169 = ORIENTED_EDGE ( 'NONE', *, *, #50, .F. ) ;
#170 = UNCERTAINTY_MEASURE_WITH_UNIT (LENGTH_MEASURE( 1.000000000000000100E-005 ), #37, 'distance_accuracy_value', 'NONE');
#171 = VERTEX_POINT ( 'NONE', #104 ) ;
#172 =( NAMED_UNIT ( * ) SI_UNIT ( $, .STERADIAN. ) SOLID_ANGLE_UNIT ( ) );
#173 = VERTEX_POINT ( 'NONE', #139 ) ;
#174 = CARTESIAN_POINT ( 'NONE',  ( -14.00000000000000200, 21.00000000000000000, 100.0000000000000000 ) ) ;
#175 = ORIENTED_EDGE ( 'NONE', *, *, #167, .T. ) ;
#176 = CARTESIAN_POINT ( 'NONE',  ( -14.00000000000000000, -14.00000000000000200, 0.0000000000000000000 ) ) ;
#177 = DIRECTION ( 'NONE',  ( 1.982541115402059900E-016, -1.000000000000000000, 0.0000000000000000000 ) ) ;
#178 = VECTOR ( 'NONE', #51, 1000.000000000000000 ) ;
#179 = FILL_AREA_STYLE ('',( #83 ) ) ;
#180 = PRODUCT_DEFINITION_CONTEXT ( 'detailed design', #132, 'design' ) ;
#181 = EDGE_CURVE ( 'NONE', #101, #191, #148, .T. ) ;
#182 = FILL_AREA_STYLE ('',( #57 ) ) ;
#183 = EDGE_CURVE ( 'NONE', #173, #171, #107, .T. ) ;
#184 = DIRECTION ( 'NONE',  ( 0.0000000000000000000, 1.000000000000000000, 0.0000000000000000000 ) ) ;
#185 = ORIENTED_EDGE ( 'NONE', *, *, #167, .F. ) ;
#186 = PRODUCT_DEFINITION ( 'UNKNOWN', '', #73, #180 ) ;
#187 = VECTOR ( 'NONE', #5, 1000.000000000000000 ) ;
#188 = CARTESIAN_POINT ( 'NONE',  ( 21.00000000000000000, -14.00000000000000000, 100.0000000000000000 ) ) ;
#189 = COLOUR_RGB ( '',0.7529411764705882200, 0.7529411764705882200, 0.7529411764705882200 ) ;
#190 = PRODUCT ( '6901101_CNAJF00', '6901101_CNAJF00', '', ( #31 ) ) ;
#191 = VERTEX_POINT ( 'NONE', #94 ) ;
#192 = AXIS2_PLACEMENT_3D ( 'NONE', #98, #15, #78 ) ;
#193 = ADVANCED_FACE ( 'NONE', ( #41 ), #144, .F. ) ;
#194 = LINE ( 'NONE', #176, #178 ) ;
#195 = VERTEX_POINT ( 'NONE', #119 ) ;
#196 = AXIS2_PLACEMENT_3D ( 'NONE', #79, #114, #95 ) ;
#197 = LINE ( 'NONE', #126, #27 ) ;
#198 = PRESENTATION_LAYER_ASSIGNMENT (  '', '', ( #150 ) ) ;
#199 = DIRECTION ( 'NONE',  ( 0.0000000000000000000, -0.0000000000000000000, -1.000000000000000000 ) ) ;
#200 = EDGE_LOOP ( 'NONE', ( #69, #164, #2, #124 ) ) ;
#201 = PLANE ( 'NONE',  #130 ) ;
#202 = ADVANCED_BREP_SHAPE_REPRESENTATION ( '6901101_CNAJF00', ( #135, #165 ), #103 ) ;
ENDSEC;
END-ISO-10303-21;
