ISO-10303-21;
HEADER;
FILE_DESCRIPTION (( 'STEP AP214' ),
    '1' );
FILE_NAME ('6951050',
    '2019-02-04T08:17:04',
    ( '' ),
    ('JUGARD+KÜNSTNER GmbH'),
    'SwSTEP 2.0',
    'SolidWorks 2017',
    '' );
FILE_SCHEMA (( 'AUTOMOTIVE_DESIGN' ));
ENDSEC;

DATA;
#1 = MANIFOLD_SOLID_BREP ( 'Importiert1', #93 ) ;
#2 = CARTESIAN_POINT ( 'NONE',  ( -1.050770483655216800E-015, 4.134112328990521100, 3.000000020545304100 ) ) ;
#3 = APPLICATION_PROTOCOL_DEFINITION ( 'draft international standard', 'automotive_design', 1998, #116 ) ;
#4 = CARTESIAN_POINT ( 'NONE',  ( 12.33103448000000100, 24.66206895999999600, 1.972413790000020900 ) ) ;
#5 = CARTESIAN_POINT ( 'NONE',  ( -14.00000000000004400, 28.00000000000008900, -1.911894439825118000E-014 ) ) ;
#6 =( GEOMETRIC_REPRESENTATION_CONTEXT ( 3 ) GLOBAL_UNCERTAINTY_ASSIGNED_CONTEXT ( ( #172 ) ) GLOBAL_UNIT_ASSIGNED_CONTEXT ( ( #105, #150, #157 ) ) REPRESENTATION_CONTEXT ( 'NONE', 'WORKASPACE' ) );
#7 = CARTESIAN_POINT ( 'NONE',  ( -1.050770483655215200E-015, 9.123618564549914600E-015, 3.000000020545304100 ) ) ;
#8 = COLOUR_RGB ( '',0.0000000000000000000, 0.0000000000000000000, 0.0000000000000000000 ) ;
#9 = SURFACE_STYLE_FILL_AREA ( #143 ) ;
#10 = CARTESIAN_POINT ( 'NONE',  ( -12.33103448000000300, 1.510116190610764800E-015, 1.972413789999991800 ) ) ;
#11 = APPLICATION_CONTEXT ( 'automotive_design' ) ;
#12 = FILL_AREA_STYLE_COLOUR ( '', #81 ) ;
#13 = CARTESIAN_POINT ( 'NONE',  ( 8.072848080894685600E-015, 8.928765296574776400E-026, 3.000000020545304100 ) ) ;
#14 = CARTESIAN_POINT ( 'NONE',  ( 3.622294698794214400E-016, -8.253944434179306500, 2.656680673920249500 ) ) ;
#15 = CARTESIAN_POINT ( 'NONE',  ( -13.99999999796170700, -27.99999999592340300, 1.022556994114798500 ) ) ;
#16 = VERTEX_POINT ( 'NONE', #20 ) ;
#17 = UNCERTAINTY_MEASURE_WITH_UNIT (LENGTH_MEASURE( 1.000000000000000100E-005 ), #201, 'distance_accuracy_value', 'NONE');
#18 = FACE_OUTER_BOUND ( 'NONE', #260, .T. ) ;
#19 = CARTESIAN_POINT ( 'NONE',  ( -1.050770483655213900E-015, 9.123618564549914600E-015, 3.000000020545304100 ) ) ;
#20 = CARTESIAN_POINT ( 'NONE',  ( 1.530009186882010600E-016, 12.33103452151873800, 1.972413790000004300 ) ) ;
#21 = PRESENTATION_LAYER_ASSIGNMENT (  '', '', ( #223 ) ) ;
#22 = DIRECTION ( 'NONE',  ( 1.171455364582520000E-015, -0.0000000000000000000, -1.000000000000000000 ) ) ;
#23 = PRODUCT_DEFINITION_CONTEXT ( 'detailed design', #11, 'design' ) ;
#24 = FILL_AREA_STYLE_COLOUR ( '', #131 ) ;
#25 = ORIENTED_EDGE ( 'NONE', *, *, #141, .T. ) ;
#26 = STYLED_ITEM ( 'NONE', ( #176 ), #215 ) ;
#27 = PRESENTATION_STYLE_ASSIGNMENT (( #293 ) ) ;
#28 = CARTESIAN_POINT ( 'NONE',  ( 13.99999999796170900, 0.0000000000000000000, 1.022556994114831100 ) ) ;
#29 = DIRECTION ( 'NONE',  ( 1.000000000000000000, 0.0000000000000000000, 1.160605681544461800E-015 ) ) ;
#30 = DIRECTION ( 'NONE',  ( 1.000000000000000000, 0.0000000000000000000, 1.160605681544461800E-015 ) ) ;
#31 = CARTESIAN_POINT ( 'NONE',  ( 1.530009107489398600E-016, 12.33103452265617900, 1.972413796777275200 ) ) ;
#32 = FILL_AREA_STYLE ('',( #37 ) ) ;
#33 = CARTESIAN_POINT ( 'NONE',  ( -8.268224657981038600, -4.134112328990520200, 3.000000020545294400 ) ) ;
#34 = CARTESIAN_POINT ( 'NONE',  ( -8.268224657981038600, 4.134112328990518400, 3.000000020545294400 ) ) ;
#35 = COLOUR_RGB ( '',0.0000000000000000000, 0.0000000000000000000, 0.0000000000000000000 ) ;
#36 = CARTESIAN_POINT ( 'NONE',  ( 13.99999999796170200, -27.99999999592341000, 1.022556994114831400 ) ) ;
#37 = FILL_AREA_STYLE_COLOUR ( '', #8 ) ;
#38 = CARTESIAN_POINT ( 'NONE',  ( 1.663117106583546400E-015, -12.33103452265617900, 1.972413796777275200 ) ) ;
#39 = ADVANCED_FACE ( 'NONE', ( #273 ), #187, .T. ) ;
#40 = MECHANICAL_DESIGN_GEOMETRIC_PRESENTATION_REPRESENTATION (  '', ( #223 ), #111 ) ;
#41 = CARTESIAN_POINT ( 'NONE',  ( 12.33103448000000300, 0.0000000000000000000, 1.972413790000020700 ) ) ;
#42 = ORIENTED_EDGE ( 'NONE', *, *, #130, .F. ) ;
#43 = EDGE_CURVE ( 'NONE', #107, #68, #152, .T. ) ;
#44 =( GEOMETRIC_REPRESENTATION_CONTEXT ( 3 ) GLOBAL_UNCERTAINTY_ASSIGNED_CONTEXT ( ( #271 ) ) GLOBAL_UNIT_ASSIGNED_CONTEXT ( ( #265, #308, #267 ) ) REPRESENTATION_CONTEXT ( 'NONE', 'WORKASPACE' ) );
#45 = CARTESIAN_POINT ( 'NONE',  ( 16.50788886835860900, 8.253944434179306500, 2.656680673920268600 ) ) ;
#46 = ORIENTED_EDGE ( 'NONE', *, *, #92, .F. ) ;
#47 = CIRCLE ( 'NONE', #297, 74.49999927246071300 ) ;
#48 = FILL_AREA_STYLE ('',( #180 ) ) ;
#49 = CARTESIAN_POINT ( 'NONE',  ( 13.99999999796170700, 27.99999999592340300, 1.022556994114831400 ) ) ;
#50 = CARTESIAN_POINT ( 'NONE',  ( -11.99999999950329700, 1.469576158915995500E-015, -3.986776633963195000E-009 ) ) ;
#51 = SURFACE_STYLE_FILL_AREA ( #299 ) ;
#52 = CARTESIAN_POINT ( 'NONE',  ( 13.33948723991437600, -26.67897447982876700, 1.803162978379525500 ) ) ;
#53 = FILL_AREA_STYLE_COLOUR ( '', #35 ) ;
#54 = PRESENTATION_STYLE_ASSIGNMENT (( #238 ) ) ;
#55 = DIRECTION ( 'NONE',  ( 0.0000000000000000000, 0.0000000000000000000, 1.000000000000000000 ) ) ;
#56 = CARTESIAN_POINT ( 'NONE',  ( -14.00000000000004800, 1.714505518806300600E-015, -1.911894439868248800E-014 ) ) ;
#57 = CARTESIAN_POINT ( 'NONE',  ( 2.463595634159937700E-015, 0.0000000000000000000, -2.116698063593317600E-015 ) ) ;
#58 = ORIENTED_EDGE ( 'NONE', *, *, #87, .F. ) ;
#59 = CARTESIAN_POINT ( 'NONE',  ( -12.33103448000000300, 1.510116190610765000E-015, 1.972413789999991800 ) ) ;
#60 = PRODUCT ( '6951050_CNAJF00', '6951050_CNAJF00', '', ( #229 ) ) ;
#61 = VERTEX_POINT ( 'NONE', #295 ) ;
#62 =( NAMED_UNIT ( * ) SI_UNIT ( $, .STERADIAN. ) SOLID_ANGLE_UNIT ( ) );
#63 = EDGE_CURVE ( 'NONE', #16, #114, #47, .T. ) ;
#64 = ORIENTED_EDGE ( 'NONE', *, *, #92, .T. ) ;
#65 = SURFACE_STYLE_FILL_AREA ( #48 ) ;
#66 = SURFACE_STYLE_USAGE ( .BOTH. , #310 ) ;
#67 = COLOUR_RGB ( '',0.0000000000000000000, 0.0000000000000000000, 0.0000000000000000000 ) ;
#68 = VERTEX_POINT ( 'NONE', #100 ) ;
#69 = CIRCLE ( 'NONE', #240, 12.33103448000000000 ) ;
#70 = CARTESIAN_POINT ( 'NONE',  ( 13.33948723991438400, 26.67897447982876000, 1.803162978379525500 ) ) ;
#71 = SURFACE_STYLE_USAGE ( .BOTH. , #292 ) ;
#72 = CARTESIAN_POINT ( 'NONE',  ( 24.66206904531235000, -12.33103452265617500, 1.972413796777304300 ) ) ;
#73 = CARTESIAN_POINT ( 'NONE',  ( 14.00000000000005200, 0.0000000000000000000, 1.428367704066984800E-014 ) ) ;
#74 = CARTESIAN_POINT ( 'NONE',  ( 13.33948723991438500, 0.0000000000000000000, 1.803162978379525500 ) ) ;
#75 = DIRECTION ( 'NONE',  ( 1.000000000000000000, 0.0000000000000000000, 1.171455364582520000E-015 ) ) ;
#76 = APPLICATION_PROTOCOL_DEFINITION ( 'draft international standard', 'automotive_design', 1998, #11 ) ;
#77 = CARTESIAN_POINT ( 'NONE',  ( -2.867231480920334800E-015, 12.33103452265617900, 1.972413796777275200 ) ) ;
#78 =( NAMED_UNIT ( * ) PLANE_ANGLE_UNIT ( ) SI_UNIT ( $, .RADIAN. ) );
#79 = CARTESIAN_POINT ( 'NONE',  ( -2.670220519617880200E-015, 8.253944434179306500, 2.656680673920249500 ) ) ;
#80 = AXIS2_PLACEMENT_3D ( 'NONE', #230, #55, #303 ) ;
#81 = COLOUR_RGB ( '',0.0000000000000000000, 0.0000000000000000000, 0.0000000000000000000 ) ;
#82 = CARTESIAN_POINT ( 'NONE',  ( 14.00000000000004400, -28.00000000000009900, 1.368180580962817500E-014 ) ) ;
#83 =( LENGTH_UNIT ( ) NAMED_UNIT ( * ) SI_UNIT ( .MILLI., .METRE. ) );
#84 =( NAMED_UNIT ( * ) SI_UNIT ( $, .STERADIAN. ) SOLID_ANGLE_UNIT ( ) );
#85 = CARTESIAN_POINT ( 'NONE',  ( 1.530009186878877100E-016, 0.0000000000000000000, 1.972413790000006500 ) ) ;
#86 = MECHANICAL_DESIGN_GEOMETRIC_PRESENTATION_REPRESENTATION (  '', ( #300 ), #218 ) ;
#87 = EDGE_CURVE ( 'NONE', #305, #107, #266, .T. ) ;
#88 = COLOUR_RGB ( '',0.0000000000000000000, 0.0000000000000000000, 0.0000000000000000000 ) ;
#89 = CIRCLE ( 'NONE', #179, 2.000000000496750200 ) ;
#90 =( BOUNDED_SURFACE ( )  B_SPLINE_SURFACE ( 3, 3, ( 
 ( #38, #280, #185, #77 ),
 ( #14, #128, #304, #79 ),
 ( #214, #33, #34, #184 ),
 ( #155, #153, #255, #19 ) ),
 .UNSPECIFIED., .F., .F., .T. ) 
 B_SPLINE_SURFACE_WITH_KNOTS ( ( 4, 4 ),
 ( 4, 4 ),
 ( 0.0000000000000000000, 1.000000000000000000 ),
 ( 0.0000000000000000000, 1.000000000000000000 ),
 .UNSPECIFIED. ) 
 GEOMETRIC_REPRESENTATION_ITEM ( )  RATIONAL_B_SPLINE_SURFACE ( (
 ( 1.000000000000000000, 0.3333333333333334300, 0.3333333333333334300, 1.000000000000000000),
 ( 0.9976971721028509200, 0.3325657240342837500, 0.3325657240342837500, 0.9976971721028509200),
 ( 0.9976971721028509200, 0.3325657240342837500, 0.3325657240342837500, 0.9976971721028509200),
 ( 1.000000000000000000, 0.3333333333333334300, 0.3333333333333334300, 1.000000000000000000) ) ) 
 REPRESENTATION_ITEM ( '' )  SURFACE ( )  );
#91 =( LENGTH_UNIT ( ) NAMED_UNIT ( * ) SI_UNIT ( .MILLI., .METRE. ) );
#92 = EDGE_CURVE ( 'NONE', #285, #68, #89, .T. ) ;
#93 = CLOSED_SHELL ( 'NONE', ( #217, #215, #39, #162, #132 ) ) ;
#94 = EDGE_CURVE ( 'NONE', #68, #107, #239, .T. ) ;
#95 = CARTESIAN_POINT ( 'NONE',  ( -13.99999999796170200, 27.99999999592340300, 1.022556994114798500 ) ) ;
#96 = EDGE_LOOP ( 'NONE', ( #237, #224, #290, #112 ) ) ;
#97 = DIRECTION ( 'NONE',  ( 1.171455364582520000E-015, -0.0000000000000000000, -1.000000000000000000 ) ) ;
#98 = DIRECTION ( 'NONE',  ( 1.171455364582520000E-015, 0.0000000000000000000, -1.000000000000000000 ) ) ;
#99 = CARTESIAN_POINT ( 'NONE',  ( 14.00000000000005300, 28.00000000000009600, 1.368180581005949900E-014 ) ) ;
#100 = CARTESIAN_POINT ( 'NONE',  ( -14.00000000000004800, 1.714505518806300400E-015, -1.851707316785648300E-014 ) ) ;
#101 = ORIENTED_EDGE ( 'NONE', *, *, #94, .T. ) ;
#102 =( LENGTH_UNIT ( ) NAMED_UNIT ( * ) SI_UNIT ( .MILLI., .METRE. ) );
#103 = CARTESIAN_POINT ( 'NONE',  ( -12.33103448000000700, -24.66206895999999600, 1.972413789999992100 ) ) ;
#104 =( NAMED_UNIT ( * ) SI_UNIT ( $, .STERADIAN. ) SOLID_ANGLE_UNIT ( ) );
#105 =( LENGTH_UNIT ( ) NAMED_UNIT ( * ) SI_UNIT ( .MILLI., .METRE. ) );
#106 = DIRECTION ( 'NONE',  ( 1.000000000000000000, 0.0000000000000000000, 1.171455364653165000E-015 ) ) ;
#107 = VERTEX_POINT ( 'NONE', #73 ) ;
#108 = MECHANICAL_DESIGN_GEOMETRIC_PRESENTATION_REPRESENTATION (  '', ( #220 ), #281 ) ;
#109 = ORIENTED_EDGE ( 'NONE', *, *, #63, .F. ) ;
#110 = UNCERTAINTY_MEASURE_WITH_UNIT (LENGTH_MEASURE( 1.000000000000000100E-005 ), #286, 'distance_accuracy_value', 'NONE');
#111 =( GEOMETRIC_REPRESENTATION_CONTEXT ( 3 ) GLOBAL_UNCERTAINTY_ASSIGNED_CONTEXT ( ( #210 ) ) GLOBAL_UNIT_ASSIGNED_CONTEXT ( ( #83, #261, #84 ) ) REPRESENTATION_CONTEXT ( 'NONE', 'WORKASPACE' ) );
#112 = ORIENTED_EDGE ( 'NONE', *, *, #63, .T. ) ;
#113 = CIRCLE ( 'NONE', #168, 12.33103448000000000 ) ;
#114 = VERTEX_POINT ( 'NONE', #13 ) ;
#115 = SURFACE_STYLE_FILL_AREA ( #182 ) ;
#116 = APPLICATION_CONTEXT ( 'automotive_design' ) ;
#117 = CARTESIAN_POINT ( 'NONE',  ( 24.66206904531235000, 12.33103452265617900, 1.972413796777304300 ) ) ;
#118 = MECHANICAL_DESIGN_GEOMETRIC_PRESENTATION_REPRESENTATION (  '', ( #26 ), #6 ) ;
#119 = CARTESIAN_POINT ( 'NONE',  ( 1.719646664544458900E-014, -9.123618564549930400E-015, 3.000000020545304100 ) ) ;
#120 = CARTESIAN_POINT ( 'NONE',  ( 1.530009186878877100E-016, 0.0000000000000000000, 1.972413790000006500 ) ) ;
#121 = CARTESIAN_POINT ( 'NONE',  ( 3.622294698794246000E-016, -8.253944434179306500, 2.656680673920249500 ) ) ;
#122 = SURFACE_STYLE_USAGE ( .BOTH. , #154 ) ;
#123 = FACE_OUTER_BOUND ( 'NONE', #151, .T. ) ;
#124 = DIRECTION ( 'NONE',  ( -1.000000000000000000, 1.224646799147353500E-016, -1.171455364653165000E-015 ) ) ;
#125 = CARTESIAN_POINT ( 'NONE',  ( 13.33948723991438700, -3.267232070125622600E-015, 1.803162978379525300 ) ) ;
#126 = CARTESIAN_POINT ( 'NONE',  ( 2.463595634159937700E-015, 0.0000000000000000000, -2.116698063593317600E-015 ) ) ;
#127 = PRODUCT_DEFINITION_FORMATION_WITH_SPECIFIED_SOURCE ( 'ANY', '', #60, .NOT_KNOWN. ) ;
#128 = CARTESIAN_POINT ( 'NONE',  ( -16.50788886835860900, -8.253944434179310000, 2.656680673920230000 ) ) ;
#129 =( NAMED_UNIT ( * ) PLANE_ANGLE_UNIT ( ) SI_UNIT ( $, .RADIAN. ) );
#130 = EDGE_CURVE ( 'NONE', #285, #16, #166, .T. ) ;
#131 = COLOUR_RGB ( '',0.7529411764705882200, 0.7529411764705882200, 0.7529411764705882200 ) ;
#132 = ADVANCED_FACE ( 'NONE', ( #202 ), #231, .T. ) ;
#133 = STYLED_ITEM ( 'NONE', ( #191 ), #132 ) ;
#134 = AXIS2_PLACEMENT_3D ( 'NONE', #126, #183, #75 ) ;
#135 = PRODUCT_DEFINITION_SHAPE ( 'NONE', 'NONE',  #136 ) ;
#136 = PRODUCT_DEFINITION ( 'UNKNOWN', '', #127, #23 ) ;
#137 = PRESENTATION_STYLE_ASSIGNMENT (( #66 ) ) ;
#138 =( BOUNDED_SURFACE ( )  B_SPLINE_SURFACE ( 3, 3, ( 
 ( #59, #103, #276, #149 ),
 ( #279, #206, #52, #125 ),
 ( #302, #15, #36, #211 ),
 ( #56, #234, #82, #258 ) ),
 .UNSPECIFIED., .F., .F., .F. ) 
 B_SPLINE_SURFACE_WITH_KNOTS ( ( 4, 4 ),
 ( 4, 4 ),
 ( 0.0000000000000000000, 1.000000000000000000 ),
 ( 0.0000000000000000000, 1.000000000000000000 ),
 .UNSPECIFIED. ) 
 GEOMETRIC_REPRESENTATION_ITEM ( )  RATIONAL_B_SPLINE_SURFACE ( (
 ( 1.000000000000000000, 0.3333333333333334300, 0.3333333333333334300, 1.000000000000000000),
 ( 0.8422575237527198900, 0.2807525079175733900, 0.2807525079175733900, 0.8422575237527198900),
 ( 0.8422575237527198900, 0.2807525079175733900, 0.2807525079175733900, 0.8422575237527198900),
 ( 1.000000000000000000, 0.3333333333333334300, 0.3333333333333334300, 1.000000000000000000) ) ) 
 REPRESENTATION_ITEM ( '' )  SURFACE ( )  );
#139 = PRODUCT_RELATED_PRODUCT_CATEGORY ( 'part', '', ( #60 ) ) ;
#140 = FILL_AREA_STYLE_COLOUR ( '', #167 ) ;
#141 = EDGE_CURVE ( 'NONE', #16, #305, #69, .T. ) ;
#142 = CARTESIAN_POINT ( 'NONE',  ( -1.050770483655235300E-015, -9.123618564549914600E-015, 3.000000020545304100 ) ) ;
#143 = FILL_AREA_STYLE ('',( #53 ) ) ;
#144 = CARTESIAN_POINT ( 'NONE',  ( 14.00000000000005200, 0.0000000000000000000, 1.368180581005949900E-014 ) ) ;
#145 = SURFACE_STYLE_FILL_AREA ( #32 ) ;
#146 = CARTESIAN_POINT ( 'NONE',  ( 8.268224657981036800, 4.134112328990519300, 3.000000020545313000 ) ) ;
#147 =( GEOMETRIC_REPRESENTATION_CONTEXT ( 3 ) GLOBAL_UNCERTAINTY_ASSIGNED_CONTEXT ( ( #17 ) ) GLOBAL_UNIT_ASSIGNED_CONTEXT ( ( #201, #228, #199 ) ) REPRESENTATION_CONTEXT ( 'NONE', 'WORKASPACE' ) );
#148 =( LENGTH_UNIT ( ) NAMED_UNIT ( * ) SI_UNIT ( .MILLI., .METRE. ) );
#149 = CARTESIAN_POINT ( 'NONE',  ( 12.33103448000000300, -3.020232381221529900E-015, 1.972413790000020700 ) ) ;
#150 =( NAMED_UNIT ( * ) PLANE_ANGLE_UNIT ( ) SI_UNIT ( $, .RADIAN. ) );
#151 = EDGE_LOOP ( 'NONE', ( #296, #171, #109, #42 ) ) ;
#152 = CIRCLE ( 'NONE', #134, 14.00000000000005000 ) ;
#153 = CARTESIAN_POINT ( 'NONE',  ( -1.929800761275506600E-014, -9.123618564549889400E-015, 3.000000020545304100 ) ) ;
#154 = SURFACE_SIDE_STYLE ('',( #145 ) ) ;
#155 = CARTESIAN_POINT ( 'NONE',  ( -1.050770483655240100E-015, -9.123618564549914600E-015, 3.000000020545304100 ) ) ;
#156 = FILL_AREA_STYLE_COLOUR ( '', #88 ) ;
#157 =( NAMED_UNIT ( * ) SI_UNIT ( $, .STERADIAN. ) SOLID_ANGLE_UNIT ( ) );
#158 = MECHANICAL_DESIGN_GEOMETRIC_PRESENTATION_REPRESENTATION (  '', ( #133 ), #307 ) ;
#159 = ORIENTED_EDGE ( 'NONE', *, *, #130, .T. ) ;
#160 = CARTESIAN_POINT ( 'NONE',  ( 1.530009186878877100E-016, 0.0000000000000000000, 1.972413790000006500 ) ) ;
#161 = AXIS2_PLACEMENT_3D ( 'NONE', #233, #213, #106 ) ;
#162 = ADVANCED_FACE ( 'NONE', ( #18 ), #246, .T. ) ;
#163 = ORIENTED_EDGE ( 'NONE', *, *, #198, .T. ) ;
#164 = FILL_AREA_STYLE ('',( #24 ) ) ;
#165 = EDGE_CURVE ( 'NONE', #61, #114, #309, .T. ) ;
#166 = CIRCLE ( 'NONE', #254, 12.33103448000000000 ) ;
#167 = COLOUR_RGB ( '',0.0000000000000000000, 0.0000000000000000000, 0.0000000000000000000 ) ;
#168 = AXIS2_PLACEMENT_3D ( 'NONE', #236, #22, #262 ) ;
#169 = PRESENTATION_LAYER_ASSIGNMENT (  '', '', ( #194 ) ) ;
#170 = PRESENTATION_LAYER_ASSIGNMENT (  '', '', ( #284 ) ) ;
#171 = ORIENTED_EDGE ( 'NONE', *, *, #165, .T. ) ;
#172 = UNCERTAINTY_MEASURE_WITH_UNIT (LENGTH_MEASURE( 1.000000000000000100E-005 ), #105, 'distance_accuracy_value', 'NONE');
#173 = CARTESIAN_POINT ( 'NONE',  ( -5.444877405538495900E-016, -4.134112328990521100, 3.000000020545304100 ) ) ;
#174 = CARTESIAN_POINT ( 'NONE',  ( -13.33948723991438200, 1.633616035062811100E-015, 1.803162978379494500 ) ) ;
#175 = EDGE_LOOP ( 'NONE', ( #196, #101 ) ) ;
#176 = PRESENTATION_STYLE_ASSIGNMENT (( #189 ) ) ;
#177 = PRESENTATION_LAYER_ASSIGNMENT (  '', '', ( #300 ) ) ;
#178 = CARTESIAN_POINT ( 'NONE',  ( 16.50788886835860900, -8.253944434179304700, 2.656680673920268600 ) ) ;
#179 = AXIS2_PLACEMENT_3D ( 'NONE', #50, #277, #124 ) ;
#180 = FILL_AREA_STYLE_COLOUR ( '', #67 ) ;
#181 = DIRECTION ( 'NONE',  ( -1.000000000000000000, 0.0000000000000000000, -1.171455364582520000E-015 ) ) ;
#182 = FILL_AREA_STYLE ('',( #140 ) ) ;
#183 = DIRECTION ( 'NONE',  ( 1.171455364582520000E-015, -0.0000000000000000000, -1.000000000000000000 ) ) ;
#184 = CARTESIAN_POINT ( 'NONE',  ( -2.063335969857980200E-015, 4.134112328990521100, 3.000000020545304100 ) ) ;
#185 = CARTESIAN_POINT ( 'NONE',  ( -24.66206904531235700, 12.33103452265617300, 1.972413796777246400 ) ) ;
#186 = CARTESIAN_POINT ( 'NONE',  ( -12.33103448000000300, 1.612310854708532900E-015, 1.972413789999992300 ) ) ;
#187 = PLANE ( 'NONE',  #205 ) ;
#188 = PRESENTATION_STYLE_ASSIGNMENT (( #71 ) ) ;
#189 = SURFACE_STYLE_USAGE ( .BOTH. , #212 ) ;
#190 =( NAMED_UNIT ( * ) PLANE_ANGLE_UNIT ( ) SI_UNIT ( $, .RADIAN. ) );
#191 = PRESENTATION_STYLE_ASSIGNMENT (( #272 ) ) ;
#192 = CIRCLE ( 'NONE', #256, 12.33103448000000000 ) ;
#193 = MECHANICAL_DESIGN_GEOMETRIC_PRESENTATION_REPRESENTATION (  '', ( #284 ), #147 ) ;
#194 = STYLED_ITEM ( 'NONE', ( #27 ), #1 ) ;
#195 = FACE_OUTER_BOUND ( 'NONE', #232, .T. ) ;
#196 = ORIENTED_EDGE ( 'NONE', *, *, #43, .T. ) ;
#197 = CARTESIAN_POINT ( 'NONE',  ( -12.33103447999999800, 24.66206895999999600, 1.972413789999992100 ) ) ;
#198 = EDGE_CURVE ( 'NONE', #61, #285, #113, .T. ) ;
#199 =( NAMED_UNIT ( * ) SI_UNIT ( $, .STERADIAN. ) SOLID_ANGLE_UNIT ( ) );
#200 = CARTESIAN_POINT ( 'NONE',  ( -14.00000000000004800, 1.714505518806300600E-015, -1.911894439825118300E-014 ) ) ;
#201 =( LENGTH_UNIT ( ) NAMED_UNIT ( * ) SI_UNIT ( .MILLI., .METRE. ) );
#202 = FACE_OUTER_BOUND ( 'NONE', #96, .T. ) ;
#203 = CARTESIAN_POINT ( 'NONE',  ( 8.268224657981038600, -4.134112328990519300, 3.000000020545313000 ) ) ;
#204 = DIRECTION ( 'NONE',  ( 1.171455364582520000E-015, 0.0000000000000000000, -1.000000000000000000 ) ) ;
#205 = AXIS2_PLACEMENT_3D ( 'NONE', #259, #204, #181 ) ;
#206 = CARTESIAN_POINT ( 'NONE',  ( -13.33948723991438700, -26.67897447982876000, 1.803162978379494200 ) ) ;
#207 = DIRECTION ( 'NONE',  ( 1.000000000000000000, 0.0000000000000000000, 1.171455364582520000E-015 ) ) ;
#208 = DIRECTION ( 'NONE',  ( 1.171455364582520000E-015, 2.189528850507526200E-047, -1.000000000000000000 ) ) ;
#209 = DIRECTION ( 'NONE',  ( 1.000000000000000000, 0.0000000000000000000, 1.171455364582520000E-015 ) ) ;
#210 = UNCERTAINTY_MEASURE_WITH_UNIT (LENGTH_MEASURE( 1.000000000000000100E-005 ), #83, 'distance_accuracy_value', 'NONE');
#211 = CARTESIAN_POINT ( 'NONE',  ( 13.99999999796170900, -3.429011037113350400E-015, 1.022556994114831100 ) ) ;
#212 = SURFACE_SIDE_STYLE ('',( #244 ) ) ;
#213 = DIRECTION ( 'NONE',  ( 0.0000000000000000000, 1.000000000000000000, 0.0000000000000000000 ) ) ;
#214 = CARTESIAN_POINT ( 'NONE',  ( -5.444877405538556000E-016, -4.134112328990521100, 3.000000020545304100 ) ) ;
#215 = ADVANCED_FACE ( 'NONE', ( #123 ), #90, .T. ) ;
#216 = DIRECTION ( 'NONE',  ( 1.171455364582520000E-015, -0.0000000000000000000, -1.000000000000000000 ) ) ;
#217 = ADVANCED_FACE ( 'NONE', ( #195 ), #138, .T. ) ;
#218 =( GEOMETRIC_REPRESENTATION_CONTEXT ( 3 ) GLOBAL_UNCERTAINTY_ASSIGNED_CONTEXT ( ( #219 ) ) GLOBAL_UNIT_ASSIGNED_CONTEXT ( ( #91, #190, #62 ) ) REPRESENTATION_CONTEXT ( 'NONE', 'WORKASPACE' ) );
#219 = UNCERTAINTY_MEASURE_WITH_UNIT (LENGTH_MEASURE( 1.000000000000000100E-005 ), #91, 'distance_accuracy_value', 'NONE');
#220 = STYLED_ITEM ( 'NONE', ( #264 ), #39 ) ;
#221 = ADVANCED_BREP_SHAPE_REPRESENTATION ( '6951050_CNAJF00', ( #1, #80 ), #44 ) ;
#222 = MECHANICAL_DESIGN_GEOMETRIC_PRESENTATION_REPRESENTATION (  '', ( #194 ), #283 ) ;
#223 = STYLED_ITEM ( 'NONE', ( #54 ), #217 ) ;
#224 = ORIENTED_EDGE ( 'NONE', *, *, #289, .F. ) ;
#225 = SURFACE_SIDE_STYLE ('',( #9 ) ) ;
#226 = SURFACE_STYLE_FILL_AREA ( #164 ) ;
#227 =( NAMED_UNIT ( * ) SI_UNIT ( $, .STERADIAN. ) SOLID_ANGLE_UNIT ( ) );
#228 =( NAMED_UNIT ( * ) PLANE_ANGLE_UNIT ( ) SI_UNIT ( $, .RADIAN. ) );
#229 = PRODUCT_CONTEXT ( 'NONE', #116, 'mechanical' ) ;
#230 = CARTESIAN_POINT ( 'NONE',  ( 0.0000000000000000000, 0.0000000000000000000, 0.0000000000000000000 ) ) ;
#231 =( BOUNDED_SURFACE ( )  B_SPLINE_SURFACE ( 3, 3, ( 
 ( #31, #117, #72, #291 ),
 ( #274, #45, #178, #121 ),
 ( #2, #146, #203, #173 ),
 ( #7, #287, #119, #142 ) ),
 .UNSPECIFIED., .F., .F., .F. ) 
 B_SPLINE_SURFACE_WITH_KNOTS ( ( 4, 4 ),
 ( 4, 4 ),
 ( 0.0000000000000000000, 1.000000000000000000 ),
 ( 0.0000000000000000000, 1.000000000000000000 ),
 .UNSPECIFIED. ) 
 GEOMETRIC_REPRESENTATION_ITEM ( )  RATIONAL_B_SPLINE_SURFACE ( (
 ( 1.000000000000000000, 0.3333333333333334300, 0.3333333333333334300, 1.000000000000000000),
 ( 0.9976971721028509200, 0.3325657240342837500, 0.3325657240342837500, 0.9976971721028509200),
 ( 0.9976971721028509200, 0.3325657240342837500, 0.3325657240342837500, 0.9976971721028509200),
 ( 1.000000000000000000, 0.3333333333333334300, 0.3333333333333334300, 1.000000000000000000) ) ) 
 REPRESENTATION_ITEM ( '' )  SURFACE ( )  );
#232 = EDGE_LOOP ( 'NONE', ( #163, #64, #311, #58, #268 ) ) ;
#233 = CARTESIAN_POINT ( 'NONE',  ( 11.99999999950330200, 0.0000000000000000000, -3.986748519034446300E-009 ) ) ;
#234 = CARTESIAN_POINT ( 'NONE',  ( -14.00000000000005000, -28.00000000000008900, -1.911894439868249100E-014 ) ) ;
#235 = CARTESIAN_POINT ( 'NONE',  ( 8.622265332546269700E-014, 0.0000000000000000000, -71.49999925191539800 ) ) ;
#236 = CARTESIAN_POINT ( 'NONE',  ( 1.530009186878877100E-016, 0.0000000000000000000, 1.972413790000006500 ) ) ;
#237 = ORIENTED_EDGE ( 'NONE', *, *, #165, .F. ) ;
#238 = SURFACE_STYLE_USAGE ( .BOTH. , #306 ) ;
#239 = CIRCLE ( 'NONE', #242, 14.00000000000005000 ) ;
#240 = AXIS2_PLACEMENT_3D ( 'NONE', #120, #97, #30 ) ;
#241 = DIRECTION ( 'NONE',  ( 1.000000000000000000, 0.0000000000000000000, 1.160605681544461800E-015 ) ) ;
#242 = AXIS2_PLACEMENT_3D ( 'NONE', #57, #250, #207 ) ;
#243 = ORIENTED_EDGE ( 'NONE', *, *, #87, .T. ) ;
#244 = SURFACE_STYLE_FILL_AREA ( #278 ) ;
#245 = PRESENTATION_LAYER_ASSIGNMENT (  '', '', ( #26 ) ) ;
#246 =( BOUNDED_SURFACE ( )  B_SPLINE_SURFACE ( 3, 3, ( 
 ( #247, #4, #197, #10 ),
 ( #74, #70, #252, #174 ),
 ( #28, #49, #95, #248 ),
 ( #144, #99, #5, #200 ) ),
 .UNSPECIFIED., .F., .F., .T. ) 
 B_SPLINE_SURFACE_WITH_KNOTS ( ( 4, 4 ),
 ( 4, 4 ),
 ( 0.0000000000000000000, 1.000000000000000000 ),
 ( 0.0000000000000000000, 1.000000000000000000 ),
 .UNSPECIFIED. ) 
 GEOMETRIC_REPRESENTATION_ITEM ( )  RATIONAL_B_SPLINE_SURFACE ( (
 ( 1.000000000000000000, 0.3333333333333334300, 0.3333333333333334300, 1.000000000000000000),
 ( 0.8422575237527198900, 0.2807525079175733900, 0.2807525079175733900, 0.8422575237527198900),
 ( 0.8422575237527198900, 0.2807525079175733900, 0.2807525079175733900, 0.8422575237527198900),
 ( 1.000000000000000000, 0.3333333333333334300, 0.3333333333333334300, 1.000000000000000000) ) ) 
 REPRESENTATION_ITEM ( '' )  SURFACE ( )  );
#247 = CARTESIAN_POINT ( 'NONE',  ( 12.33103448000000300, 0.0000000000000000000, 1.972413790000020700 ) ) ;
#248 = CARTESIAN_POINT ( 'NONE',  ( -13.99999999796170500, 1.714505518556675200E-015, 1.022556994114798500 ) ) ;
#249 =( NAMED_UNIT ( * ) PLANE_ANGLE_UNIT ( ) SI_UNIT ( $, .RADIAN. ) );
#250 = DIRECTION ( 'NONE',  ( 1.171455364582520000E-015, -0.0000000000000000000, -1.000000000000000000 ) ) ;
#251 = ORIENTED_EDGE ( 'NONE', *, *, #94, .F. ) ;
#252 = CARTESIAN_POINT ( 'NONE',  ( -13.33948723991437600, 26.67897447982875300, 1.803162978379494700 ) ) ;
#253 = SURFACE_SIDE_STYLE ('',( #51 ) ) ;
#254 = AXIS2_PLACEMENT_3D ( 'NONE', #85, #288, #29 ) ;
#255 = CARTESIAN_POINT ( 'NONE',  ( -1.929800761275504100E-014, 9.123618564549943000E-015, 3.000000020545304100 ) ) ;
#256 = AXIS2_PLACEMENT_3D ( 'NONE', #160, #216, #241 ) ;
#257 =( NAMED_UNIT ( * ) SI_UNIT ( $, .STERADIAN. ) SOLID_ANGLE_UNIT ( ) );
#258 = CARTESIAN_POINT ( 'NONE',  ( 14.00000000000005200, -3.429011037612601100E-015, 1.368180580962818300E-014 ) ) ;
#259 = CARTESIAN_POINT ( 'NONE',  ( 7.000000000000000000, 0.0000000000000000000, 4.879747027250749700E-015 ) ) ;
#260 = EDGE_LOOP ( 'NONE', ( #46, #159, #25, #243, #251 ) ) ;
#261 =( NAMED_UNIT ( * ) PLANE_ANGLE_UNIT ( ) SI_UNIT ( $, .RADIAN. ) );
#262 = DIRECTION ( 'NONE',  ( 1.000000000000000000, 0.0000000000000000000, 1.160605681544461800E-015 ) ) ;
#263 = PRESENTATION_LAYER_ASSIGNMENT (  '', '', ( #133 ) ) ;
#264 = PRESENTATION_STYLE_ASSIGNMENT (( #122 ) ) ;
#265 =( LENGTH_UNIT ( ) NAMED_UNIT ( * ) SI_UNIT ( .MILLI., .METRE. ) );
#266 = CIRCLE ( 'NONE', #161, 2.000000000496750200 ) ;
#267 =( NAMED_UNIT ( * ) SI_UNIT ( $, .STERADIAN. ) SOLID_ANGLE_UNIT ( ) );
#268 = ORIENTED_EDGE ( 'NONE', *, *, #289, .T. ) ;
#269 = AXIS2_PLACEMENT_3D ( 'NONE', #298, #294, #208 ) ;
#270 = PRESENTATION_LAYER_ASSIGNMENT (  '', '', ( #220 ) ) ;
#271 = UNCERTAINTY_MEASURE_WITH_UNIT (LENGTH_MEASURE( 1.000000000000000100E-005 ), #265, 'distance_accuracy_value', 'NONE');
#272 = SURFACE_STYLE_USAGE ( .BOTH. , #225 ) ;
#273 = FACE_OUTER_BOUND ( 'NONE', #175, .T. ) ;
#274 = CARTESIAN_POINT ( 'NONE',  ( -6.485871932863233000E-016, 8.253944434179306500, 2.656680673920249500 ) ) ;
#275 = UNCERTAINTY_MEASURE_WITH_UNIT (LENGTH_MEASURE( 1.000000000000000100E-005 ), #148, 'distance_accuracy_value', 'NONE');
#276 = CARTESIAN_POINT ( 'NONE',  ( 12.33103447999999800, -24.66206896000000300, 1.972413790000020900 ) ) ;
#277 = DIRECTION ( 'NONE',  ( -1.224646799147353200E-016, -1.000000000000000000, -1.434619062579978800E-031 ) ) ;
#278 = FILL_AREA_STYLE ('',( #12 ) ) ;
#279 = CARTESIAN_POINT ( 'NONE',  ( -13.33948723991438500, 1.633616035062811300E-015, 1.803162978379494500 ) ) ;
#280 = CARTESIAN_POINT ( 'NONE',  ( -24.66206904531235000, -12.33103452265618400, 1.972413796777246400 ) ) ;
#281 =( GEOMETRIC_REPRESENTATION_CONTEXT ( 3 ) GLOBAL_UNCERTAINTY_ASSIGNED_CONTEXT ( ( #275 ) ) GLOBAL_UNIT_ASSIGNED_CONTEXT ( ( #148, #78, #257 ) ) REPRESENTATION_CONTEXT ( 'NONE', 'WORKASPACE' ) );
#282 = UNCERTAINTY_MEASURE_WITH_UNIT (LENGTH_MEASURE( 1.000000000000000100E-005 ), #102, 'distance_accuracy_value', 'NONE');
#283 =( GEOMETRIC_REPRESENTATION_CONTEXT ( 3 ) GLOBAL_UNCERTAINTY_ASSIGNED_CONTEXT ( ( #282 ) ) GLOBAL_UNIT_ASSIGNED_CONTEXT ( ( #102, #129, #104 ) ) REPRESENTATION_CONTEXT ( 'NONE', 'WORKASPACE' ) );
#284 = STYLED_ITEM ( 'NONE', ( #188 ), #162 ) ;
#285 = VERTEX_POINT ( 'NONE', #186 ) ;
#286 =( LENGTH_UNIT ( ) NAMED_UNIT ( * ) SI_UNIT ( .MILLI., .METRE. ) );
#287 = CARTESIAN_POINT ( 'NONE',  ( 1.719646664544460800E-014, 9.123618564549889400E-015, 3.000000020545304100 ) ) ;
#288 = DIRECTION ( 'NONE',  ( 1.171455364582520000E-015, -0.0000000000000000000, -1.000000000000000000 ) ) ;
#289 = EDGE_CURVE ( 'NONE', #305, #61, #192, .T. ) ;
#290 = ORIENTED_EDGE ( 'NONE', *, *, #141, .F. ) ;
#291 = CARTESIAN_POINT ( 'NONE',  ( 1.663117106583550900E-015, -12.33103452265617900, 1.972413796777275200 ) ) ;
#292 = SURFACE_SIDE_STYLE ('',( #65 ) ) ;
#293 = SURFACE_STYLE_USAGE ( .BOTH. , #253 ) ;
#294 = DIRECTION ( 'NONE',  ( -1.000000000000000000, -1.224646799147353200E-016, -1.171455364582520000E-015 ) ) ;
#295 = CARTESIAN_POINT ( 'NONE',  ( 1.663117114383532200E-015, -12.33103452151873800, 1.972413790000004300 ) ) ;
#296 = ORIENTED_EDGE ( 'NONE', *, *, #198, .F. ) ;
#297 = AXIS2_PLACEMENT_3D ( 'NONE', #235, #209, #98 ) ;
#298 = CARTESIAN_POINT ( 'NONE',  ( 8.622265332546269700E-014, 1.111870119398353400E-045, -71.49999925191539800 ) ) ;
#299 = FILL_AREA_STYLE ('',( #156 ) ) ;
#300 = STYLED_ITEM ( 'NONE', ( #137 ), #221 ) ;
#301 = SHAPE_DEFINITION_REPRESENTATION ( #135, #221 ) ;
#302 = CARTESIAN_POINT ( 'NONE',  ( -13.99999999796170500, 1.714505518556675200E-015, 1.022556994114798500 ) ) ;
#303 = DIRECTION ( 'NONE',  ( 1.000000000000000000, 0.0000000000000000000, 0.0000000000000000000 ) ) ;
#304 = CARTESIAN_POINT ( 'NONE',  ( -16.50788886835861300, 8.253944434179304700, 2.656680673920230000 ) ) ;
#305 = VERTEX_POINT ( 'NONE', #41 ) ;
#306 = SURFACE_SIDE_STYLE ('',( #115 ) ) ;
#307 =( GEOMETRIC_REPRESENTATION_CONTEXT ( 3 ) GLOBAL_UNCERTAINTY_ASSIGNED_CONTEXT ( ( #110 ) ) GLOBAL_UNIT_ASSIGNED_CONTEXT ( ( #286, #249, #227 ) ) REPRESENTATION_CONTEXT ( 'NONE', 'WORKASPACE' ) );
#308 =( NAMED_UNIT ( * ) PLANE_ANGLE_UNIT ( ) SI_UNIT ( $, .RADIAN. ) );
#309 = CIRCLE ( 'NONE', #269, 74.49999927246071300 ) ;
#310 = SURFACE_SIDE_STYLE ('',( #226 ) ) ;
#311 = ORIENTED_EDGE ( 'NONE', *, *, #43, .F. ) ;
ENDSEC;
END-ISO-10303-21;
