ISO-10303-21;
HEADER;
FILE_DESCRIPTION (( 'STEP AP214' ),
    '1' );
FILE_NAME ('7228140',
    '2019-02-04T10:06:09',
    ( '' ),
    ('JUGARD+KÜNSTNER GmbH'),
    'SwSTEP 2.0',
    'SolidWorks 2017',
    '' );
FILE_SCHEMA (( 'AUTOMOTIVE_DESIGN' ));
ENDSEC;

DATA;
#1 = EDGE_LOOP ( 'NONE', ( #77, #145, #101, #362 ) ) ;
#2 = LINE ( 'NONE', #243, #155 ) ;
#3 = DIRECTION ( 'NONE',  ( -1.000000000000000000, -0.0000000000000000000, -0.0000000000000000000 ) ) ;
#4 = EDGE_CURVE ( 'NONE', #268, #201, #175, .T. ) ;
#5 = ORIENTED_EDGE ( 'NONE', *, *, #4, .T. ) ;
#6 = LINE ( 'NONE', #185, #123 ) ;
#7 = VECTOR ( 'NONE', #357, 1000.000000000000000 ) ;
#8 = DIRECTION ( 'NONE',  ( -0.0000000000000000000, -0.0000000000000000000, 1.000000000000000000 ) ) ;
#9 = AXIS2_PLACEMENT_3D ( 'NONE', #93, #124, #44 ) ;
#10 = CARTESIAN_POINT ( 'NONE',  ( 5.100000000000000500, -3.500000000000000000, 0.0000000000000000000 ) ) ;
#11 = ORIENTED_EDGE ( 'NONE', *, *, #30, .T. ) ;
#12 = CYLINDRICAL_SURFACE ( 'NONE', #332, 3.500000000000000000 ) ;
#13 = DIRECTION ( 'NONE',  ( 0.0000000000000000000, 0.0000000000000000000, -1.000000000000000000 ) ) ;
#14 = UNCERTAINTY_MEASURE_WITH_UNIT (LENGTH_MEASURE( 1.000000000000000100E-005 ), #106, 'distance_accuracy_value', 'NONE');
#15 = DIRECTION ( 'NONE',  ( -1.000000000000000000, 0.0000000000000000000, 0.0000000000000000000 ) ) ;
#16 = ORIENTED_EDGE ( 'NONE', *, *, #61, .T. ) ;
#17 = VECTOR ( 'NONE', #276, 1000.000000000000000 ) ;
#18 = VERTEX_POINT ( 'NONE', #328 ) ;
#19 = CARTESIAN_POINT ( 'NONE',  ( -3.199999999999999700, 3.499999999999999600, 5.000000000000000000 ) ) ;
#20 = CARTESIAN_POINT ( 'NONE',  ( 5.100000000000000500, 3.499999999999999600, 5.000000000000000000 ) ) ;
#21 = DIRECTION ( 'NONE',  ( -1.000000000000000000, 0.0000000000000000000, -0.0000000000000000000 ) ) ;
#22 = CARTESIAN_POINT ( 'NONE',  ( 12.40000000000000200, -9.000000000000001800, 5.000000000000000000 ) ) ;
#23 = VERTEX_POINT ( 'NONE', #114 ) ;
#24 = VECTOR ( 'NONE', #334, 1000.000000000000000 ) ;
#25 = ADVANCED_FACE ( 'NONE', ( #376 ), #238, .T. ) ;
#26 = DIRECTION ( 'NONE',  ( 0.0000000000000000000, 0.0000000000000000000, 1.000000000000000000 ) ) ;
#27 =( GEOMETRIC_REPRESENTATION_CONTEXT ( 3 ) GLOBAL_UNCERTAINTY_ASSIGNED_CONTEXT ( ( #333 ) ) GLOBAL_UNIT_ASSIGNED_CONTEXT ( ( #255, #319, #135 ) ) REPRESENTATION_CONTEXT ( 'NONE', 'WORKASPACE' ) );
#28 = ORIENTED_EDGE ( 'NONE', *, *, #158, .F. ) ;
#29 = APPLICATION_PROTOCOL_DEFINITION ( 'draft international standard', 'automotive_design', 1998, #55 ) ;
#30 = EDGE_CURVE ( 'NONE', #48, #268, #262, .T. ) ;
#31 = ORIENTED_EDGE ( 'NONE', *, *, #88, .F. ) ;
#32 = VECTOR ( 'NONE', #99, 1000.000000000000000 ) ;
#33 = ORIENTED_EDGE ( 'NONE', *, *, #230, .T. ) ;
#34 = PRODUCT_RELATED_PRODUCT_CATEGORY ( 'part', '', ( #223 ) ) ;
#35 = DIRECTION ( 'NONE',  ( -0.0000000000000000000, -0.0000000000000000000, 1.000000000000000000 ) ) ;
#36 = EDGE_CURVE ( 'NONE', #244, #65, #336, .T. ) ;
#37 = SURFACE_STYLE_FILL_AREA ( #195 ) ;
#38 = ORIENTED_EDGE ( 'NONE', *, *, #190, .F. ) ;
#39 = CARTESIAN_POINT ( 'NONE',  ( -3.200000000000000200, 0.0000000000000000000, 2.000000000000000000 ) ) ;
#40 = CARTESIAN_POINT ( 'NONE',  ( 5.100000000000000500, 3.500000000000000000, 2.000000000000000000 ) ) ;
#41 = VERTEX_POINT ( 'NONE', #176 ) ;
#42 = AXIS2_PLACEMENT_3D ( 'NONE', #261, #229, #228 ) ;
#43 = VECTOR ( 'NONE', #3, 1000.000000000000000 ) ;
#44 = DIRECTION ( 'NONE',  ( 0.0000000000000000000, -0.0000000000000000000, 1.000000000000000000 ) ) ;
#45 = CARTESIAN_POINT ( 'NONE',  ( 12.40000000000000200, 9.000000000000001800, 0.0000000000000000000 ) ) ;
#46 = CARTESIAN_POINT ( 'NONE',  ( -6.700000000000000200, 0.0000000000000000000, 0.0000000000000000000 ) ) ;
#47 = EDGE_LOOP ( 'NONE', ( #231, #161, #33, #374 ) ) ;
#48 = VERTEX_POINT ( 'NONE', #353 ) ;
#49 = CARTESIAN_POINT ( 'NONE',  ( -3.200000000000000200, -3.500000000000000000, 0.0000000000000000000 ) ) ;
#50 = AXIS2_PLACEMENT_3D ( 'NONE', #178, #13, #298 ) ;
#51 = DIRECTION ( 'NONE',  ( 1.000000000000000000, 0.0000000000000000000, 0.0000000000000000000 ) ) ;
#52 = ORIENTED_EDGE ( 'NONE', *, *, #87, .T. ) ;
#53 = ORIENTED_EDGE ( 'NONE', *, *, #207, .T. ) ;
#54 = VERTEX_POINT ( 'NONE', #206 ) ;
#55 = APPLICATION_CONTEXT ( 'automotive_design' ) ;
#56 = SHAPE_DEFINITION_REPRESENTATION ( #347, #315 ) ;
#57 = VERTEX_POINT ( 'NONE', #115 ) ;
#58 = FACE_OUTER_BOUND ( 'NONE', #325, .T. ) ;
#59 = EDGE_CURVE ( 'NONE', #201, #41, #291, .T. ) ;
#60 = CARTESIAN_POINT ( 'NONE',  ( -3.200000000000000200, 3.500000000000000000, 2.000000000000000000 ) ) ;
#61 = EDGE_CURVE ( 'NONE', #57, #54, #86, .T. ) ;
#62 = LINE ( 'NONE', #49, #245 ) ;
#63 = VERTEX_POINT ( 'NONE', #19 ) ;
#64 = AXIS2_PLACEMENT_3D ( 'NONE', #162, #366, #26 ) ;
#65 = VERTEX_POINT ( 'NONE', #152 ) ;
#66 = PLANE ( 'NONE',  #50 ) ;
#67 = DIRECTION ( 'NONE',  ( -0.0000000000000000000, 0.0000000000000000000, -1.000000000000000000 ) ) ;
#68 = ORIENTED_EDGE ( 'NONE', *, *, #342, .T. ) ;
#69 = COLOUR_RGB ( '',0.7529411764705882200, 0.7529411764705882200, 0.7529411764705882200 ) ;
#70 = EDGE_CURVE ( 'NONE', #147, #320, #257, .T. ) ;
#71 = ORIENTED_EDGE ( 'NONE', *, *, #30, .F. ) ;
#72 = CARTESIAN_POINT ( 'NONE',  ( 5.100000000000000500, -3.500000000000000000, 2.000000000000000000 ) ) ;
#73 = CARTESIAN_POINT ( 'NONE',  ( -3.199999999999999700, -3.500000000000000000, 0.0000000000000000000 ) ) ;
#74 = DIRECTION ( 'NONE',  ( -0.0000000000000000000, -0.0000000000000000000, 1.000000000000000000 ) ) ;
#75 = CIRCLE ( 'NONE', #306, 3.500000000000000000 ) ;
#76 = AXIS2_PLACEMENT_3D ( 'NONE', #151, #91, #247 ) ;
#77 = ORIENTED_EDGE ( 'NONE', *, *, #233, .T. ) ;
#78 = LINE ( 'NONE', #130, #32 ) ;
#79 = ORIENTED_EDGE ( 'NONE', *, *, #116, .F. ) ;
#80 = APPLICATION_PROTOCOL_DEFINITION ( 'draft international standard', 'automotive_design', 1998, #372 ) ;
#81 = VERTEX_POINT ( 'NONE', #10 ) ;
#82 = VECTOR ( 'NONE', #21, 1000.000000000000000 ) ;
#83 = PRODUCT_DEFINITION ( 'UNKNOWN', '', #358, #263 ) ;
#84 = EDGE_LOOP ( 'NONE', ( #330, #224, #31, #264, #327 ) ) ;
#85 = LINE ( 'NONE', #279, #82 ) ;
#86 = LINE ( 'NONE', #299, #354 ) ;
#87 = EDGE_CURVE ( 'NONE', #320, #57, #199, .T. ) ;
#88 = EDGE_CURVE ( 'NONE', #41, #18, #198, .T. ) ;
#89 = VECTOR ( 'NONE', #361, 1000.000000000000000 ) ;
#90 = DIRECTION ( 'NONE',  ( 1.000000000000000000, -0.0000000000000000000, 0.0000000000000000000 ) ) ;
#91 = DIRECTION ( 'NONE',  ( -0.0000000000000000000, -0.0000000000000000000, 1.000000000000000000 ) ) ;
#92 = UNCERTAINTY_MEASURE_WITH_UNIT (LENGTH_MEASURE( 1.000000000000000100E-005 ), #335, 'distance_accuracy_value', 'NONE');
#93 = CARTESIAN_POINT ( 'NONE',  ( -3.200000000000000200, -3.500000000000000000, 2.000000000000000000 ) ) ;
#94 = ORIENTED_EDGE ( 'NONE', *, *, #190, .T. ) ;
#95 = CYLINDRICAL_SURFACE ( 'NONE', #278, 3.500000000000000000 ) ;
#96 = VECTOR ( 'NONE', #8, 1000.000000000000000 ) ;
#97 = EDGE_CURVE ( 'NONE', #147, #244, #364, .T. ) ;
#98 = CARTESIAN_POINT ( 'NONE',  ( 12.40000000000000200, 9.000000000000001800, 2.000000000000000000 ) ) ;
#99 = DIRECTION ( 'NONE',  ( -0.0000000000000000000, -0.0000000000000000000, -1.000000000000000000 ) ) ;
#100 = DIRECTION ( 'NONE',  ( 0.0000000000000000000, 0.0000000000000000000, -1.000000000000000000 ) ) ;
#101 = ORIENTED_EDGE ( 'NONE', *, *, #272, .T. ) ;
#102 = DIRECTION ( 'NONE',  ( -1.000000000000000000, 0.0000000000000000000, 0.0000000000000000000 ) ) ;
#103 = ADVANCED_FACE ( 'NONE', ( #107, #281 ), #66, .T. ) ;
#104 = CARTESIAN_POINT ( 'NONE',  ( -12.40000000000000200, -9.000000000000001800, 5.000000000000000000 ) ) ;
#105 = COLOUR_RGB ( '',0.0000000000000000000, 0.0000000000000000000, 0.0000000000000000000 ) ;
#106 =( LENGTH_UNIT ( ) NAMED_UNIT ( * ) SI_UNIT ( .MILLI., .METRE. ) );
#107 = FACE_BOUND ( 'NONE', #356, .T. ) ;
#108 = DIRECTION ( 'NONE',  ( 0.0000000000000000000, 0.0000000000000000000, 1.000000000000000000 ) ) ;
#109 = EDGE_LOOP ( 'NONE', ( #251, #119, #289, #168 ) ) ;
#110 = ORIENTED_EDGE ( 'NONE', *, *, #360, .T. ) ;
#111 = EDGE_CURVE ( 'NONE', #294, #268, #204, .T. ) ;
#112 = VECTOR ( 'NONE', #129, 1000.000000000000000 ) ;
#113 = PRESENTATION_LAYER_ASSIGNMENT (  '', '', ( #227 ) ) ;
#114 = CARTESIAN_POINT ( 'NONE',  ( -12.40000000000000200, 9.000000000000001800, 0.0000000000000000000 ) ) ;
#115 = CARTESIAN_POINT ( 'NONE',  ( -12.40000000000000200, 9.000000000000001800, 5.000000000000000000 ) ) ;
#116 = EDGE_CURVE ( 'NONE', #237, #244, #194, .T. ) ;
#117 = CARTESIAN_POINT ( 'NONE',  ( 12.40000000000000200, -9.000000000000001800, 0.0000000000000000000 ) ) ;
#118 = EDGE_LOOP ( 'NONE', ( #246, #94, #157, #79 ) ) ;
#119 = ORIENTED_EDGE ( 'NONE', *, *, #36, .T. ) ;
#120 = AXIS2_PLACEMENT_3D ( 'NONE', #288, #258, #197 ) ;
#121 = DIRECTION ( 'NONE',  ( -1.000000000000000000, 0.0000000000000000000, 0.0000000000000000000 ) ) ;
#122 = ORIENTED_EDGE ( 'NONE', *, *, #111, .T. ) ;
#123 = VECTOR ( 'NONE', #74, 1000.000000000000000 ) ;
#124 = DIRECTION ( 'NONE',  ( -0.0000000000000000000, 1.000000000000000000, 0.0000000000000000000 ) ) ;
#125 = CARTESIAN_POINT ( 'NONE',  ( 12.40000000000000200, -9.000000000000001800, 5.000000000000000000 ) ) ;
#126 = AXIS2_PLACEMENT_3D ( 'NONE', #22, #218, #338 ) ;
#127 = EDGE_LOOP ( 'NONE', ( #137, #38, #252, #316 ) ) ;
#128 = ORIENTED_EDGE ( 'NONE', *, *, #4, .F. ) ;
#129 = DIRECTION ( 'NONE',  ( -0.0000000000000000000, 1.000000000000000000, 0.0000000000000000000 ) ) ;
#130 = CARTESIAN_POINT ( 'NONE',  ( 12.40000000000000200, 9.000000000000001800, 2.000000000000000000 ) ) ;
#131 = ADVANCED_FACE ( 'NONE', ( #363 ), #271, .F. ) ;
#132 = CARTESIAN_POINT ( 'NONE',  ( -3.200000000000000200, 3.500000000000000000, 0.0000000000000000000 ) ) ;
#133 = ORIENTED_EDGE ( 'NONE', *, *, #272, .F. ) ;
#134 = FACE_OUTER_BOUND ( 'NONE', #274, .T. ) ;
#135 =( NAMED_UNIT ( * ) SI_UNIT ( $, .STERADIAN. ) SOLID_ANGLE_UNIT ( ) );
#136 = EDGE_CURVE ( 'NONE', #81, #235, #174, .T. ) ;
#137 = ORIENTED_EDGE ( 'NONE', *, *, #70, .F. ) ;
#138 = LINE ( 'NONE', #370, #323 ) ;
#139 = CARTESIAN_POINT ( 'NONE',  ( -3.200000000000000200, 0.0000000000000000000, 5.000000000000000000 ) ) ;
#140 = ORIENTED_EDGE ( 'NONE', *, *, #111, .F. ) ;
#141 = DIRECTION ( 'NONE',  ( -0.0000000000000000000, -0.0000000000000000000, 1.000000000000000000 ) ) ;
#142 = DIRECTION ( 'NONE',  ( -1.000000000000000000, 8.881784197001252300E-016, 0.0000000000000000000 ) ) ;
#143 = AXIS2_PLACEMENT_3D ( 'NONE', #139, #141, #345 ) ;
#144 = DIRECTION ( 'NONE',  ( 0.0000000000000000000, -1.000000000000000000, 0.0000000000000000000 ) ) ;
#145 = ORIENTED_EDGE ( 'NONE', *, *, #171, .T. ) ;
#146 = CARTESIAN_POINT ( 'NONE',  ( -3.200000000000000200, 0.0000000000000000000, 0.0000000000000000000 ) ) ;
#147 = VERTEX_POINT ( 'NONE', #303 ) ;
#148 = EDGE_CURVE ( 'NONE', #18, #226, #302, .T. ) ;
#149 = VECTOR ( 'NONE', #219, 1000.000000000000000 ) ;
#150 = DIRECTION ( 'NONE',  ( 0.0000000000000000000, -1.000000000000000000, 0.0000000000000000000 ) ) ;
#151 = CARTESIAN_POINT ( 'NONE',  ( 5.099999999999999600, 0.0000000000000000000, 5.000000000000000000 ) ) ;
#152 = CARTESIAN_POINT ( 'NONE',  ( -12.40000000000000200, -9.000000000000001800, 0.0000000000000000000 ) ) ;
#153 = PRESENTATION_LAYER_ASSIGNMENT (  '', '', ( #200 ) ) ;
#154 = CARTESIAN_POINT ( 'NONE',  ( -3.200000000000000200, 0.0000000000000000000, 2.000000000000000000 ) ) ;
#155 = VECTOR ( 'NONE', #277, 1000.000000000000000 ) ;
#156 = ADVANCED_FACE ( 'NONE', ( #265 ), #12, .F. ) ;
#157 = ORIENTED_EDGE ( 'NONE', *, *, #97, .T. ) ;
#158 = EDGE_CURVE ( 'NONE', #23, #237, #290, .T. ) ;
#159 =( NAMED_UNIT ( * ) PLANE_ANGLE_UNIT ( ) SI_UNIT ( $, .RADIAN. ) );
#160 = PLANE ( 'NONE',  #126 ) ;
#161 = ORIENTED_EDGE ( 'NONE', *, *, #186, .T. ) ;
#162 = CARTESIAN_POINT ( 'NONE',  ( 12.40000000000000200, 9.000000000000001800, 2.000000000000000000 ) ) ;
#163 = ADVANCED_FACE ( 'NONE', ( #236 ), #211, .T. ) ;
#164 = AXIS2_PLACEMENT_3D ( 'NONE', #273, #212, #121 ) ;
#165 = CARTESIAN_POINT ( 'NONE',  ( 0.0000000000000000000, 0.0000000000000000000, 0.0000000000000000000 ) ) ;
#166 = ORIENTED_EDGE ( 'NONE', *, *, #270, .F. ) ;
#167 = SURFACE_STYLE_FILL_AREA ( #305 ) ;
#168 = ORIENTED_EDGE ( 'NONE', *, *, #158, .T. ) ;
#169 =( NAMED_UNIT ( * ) SI_UNIT ( $, .STERADIAN. ) SOLID_ANGLE_UNIT ( ) );
#170 = SURFACE_SIDE_STYLE ('',( #37 ) ) ;
#171 = EDGE_CURVE ( 'NONE', #63, #48, #2, .T. ) ;
#172 = LINE ( 'NONE', #40, #89 ) ;
#173 = EDGE_CURVE ( 'NONE', #235, #226, #172, .T. ) ;
#174 = CIRCLE ( 'NONE', #164, 3.500000000000000000 ) ;
#175 = CIRCLE ( 'NONE', #221, 3.500000000000000000 ) ;
#176 = CARTESIAN_POINT ( 'NONE',  ( -3.199999999999999700, -3.499999999999999600, 5.000000000000000000 ) ) ;
#177 = VECTOR ( 'NONE', #67, 1000.000000000000000 ) ;
#178 = CARTESIAN_POINT ( 'NONE',  ( 12.40000000000000200, -9.000000000000001800, 0.0000000000000000000 ) ) ;
#179 = AXIS2_PLACEMENT_3D ( 'NONE', #98, #150, #355 ) ;
#180 = CARTESIAN_POINT ( 'NONE',  ( 12.40000000000000200, -9.000000000000001800, 2.000000000000000000 ) ) ;
#181 = ADVANCED_FACE ( 'NONE', ( #317 ), #95, .F. ) ;
#182 = EDGE_LOOP ( 'NONE', ( #68, #122, #71, #348 ) ) ;
#183 = LINE ( 'NONE', #283, #112 ) ;
#184 = CARTESIAN_POINT ( 'NONE',  ( -6.700000000000000200, 0.0000000000000000000, 2.000000000000000000 ) ) ;
#185 = CARTESIAN_POINT ( 'NONE',  ( -12.40000000000000200, 9.000000000000001800, 2.000000000000000000 ) ) ;
#186 = EDGE_CURVE ( 'NONE', #18, #81, #256, .T. ) ;
#187 = CARTESIAN_POINT ( 'NONE',  ( 5.100000000000000500, 3.500000000000000000, 0.0000000000000000000 ) ) ;
#188 = ORIENTED_EDGE ( 'NONE', *, *, #253, .T. ) ;
#189 = ORIENTED_EDGE ( 'NONE', *, *, #230, .F. ) ;
#190 = EDGE_CURVE ( 'NONE', #54, #147, #202, .T. ) ;
#191 = CARTESIAN_POINT ( 'NONE',  ( 12.40000000000000200, -9.000000000000001800, 0.0000000000000000000 ) ) ;
#192 = PLANE ( 'NONE',  #64 ) ;
#193 = ORIENTED_EDGE ( 'NONE', *, *, #97, .F. ) ;
#194 = LINE ( 'NONE', #45, #275 ) ;
#195 = FILL_AREA_STYLE ('',( #343 ) ) ;
#196 = PRODUCT_CONTEXT ( 'NONE', #372, 'mechanical' ) ;
#197 = DIRECTION ( 'NONE',  ( 0.0000000000000000000, 0.0000000000000000000, -1.000000000000000000 ) ) ;
#198 = LINE ( 'NONE', #241, #340 ) ;
#199 = LINE ( 'NONE', #213, #280 ) ;
#200 = STYLED_ITEM ( 'NONE', ( #240 ), #296 ) ;
#201 = VERTEX_POINT ( 'NONE', #73 ) ;
#202 = LINE ( 'NONE', #312, #149 ) ;
#203 = ORIENTED_EDGE ( 'NONE', *, *, #186, .F. ) ;
#204 = LINE ( 'NONE', #184, #24 ) ;
#205 = ORIENTED_EDGE ( 'NONE', *, *, #70, .T. ) ;
#206 = CARTESIAN_POINT ( 'NONE',  ( 12.40000000000000200, 9.000000000000001800, 5.000000000000000000 ) ) ;
#207 = EDGE_CURVE ( 'NONE', #320, #65, #138, .T. ) ;
#208 = DIRECTION ( 'NONE',  ( -0.0000000000000000000, -1.000000000000000000, 0.0000000000000000000 ) ) ;
#209 = EDGE_LOOP ( 'NONE', ( #203, #220, #214, #346 ) ) ;
#210 = FACE_OUTER_BOUND ( 'NONE', #118, .T. ) ;
#211 = PLANE ( 'NONE',  #9 ) ;
#212 = DIRECTION ( 'NONE',  ( -0.0000000000000000000, -0.0000000000000000000, 1.000000000000000000 ) ) ;
#213 = CARTESIAN_POINT ( 'NONE',  ( -12.40000000000000200, -9.000000000000001800, 5.000000000000000000 ) ) ;
#214 = ORIENTED_EDGE ( 'NONE', *, *, #173, .F. ) ;
#215 = CIRCLE ( 'NONE', #143, 3.500000000000000000 ) ;
#216 = ORIENTED_EDGE ( 'NONE', *, *, #259, .F. ) ;
#217 = CARTESIAN_POINT ( 'NONE',  ( 5.099999999999999600, 0.0000000000000000000, 2.000000000000000000 ) ) ;
#218 = DIRECTION ( 'NONE',  ( 0.0000000000000000000, 0.0000000000000000000, -1.000000000000000000 ) ) ;
#219 = DIRECTION ( 'NONE',  ( -0.0000000000000000000, -1.000000000000000000, -0.0000000000000000000 ) ) ;
#220 = ORIENTED_EDGE ( 'NONE', *, *, #148, .T. ) ;
#221 = AXIS2_PLACEMENT_3D ( 'NONE', #326, #351, #239 ) ;
#222 = DIRECTION ( 'NONE',  ( -1.000000000000000000, -0.0000000000000000000, -0.0000000000000000000 ) ) ;
#223 = PRODUCT ( '7228140_CNAJF00', '7228140_CNAJF00', '', ( #196 ) ) ;
#224 = ORIENTED_EDGE ( 'NONE', *, *, #148, .F. ) ;
#225 = FACE_BOUND ( 'NONE', #84, .T. ) ;
#226 = VERTEX_POINT ( 'NONE', #20 ) ;
#227 = STYLED_ITEM ( 'NONE', ( #250 ), #315 ) ;
#228 = DIRECTION ( 'NONE',  ( 0.0000000000000000000, -0.0000000000000000000, 1.000000000000000000 ) ) ;
#229 = DIRECTION ( 'NONE',  ( -0.0000000000000000000, 1.000000000000000000, 0.0000000000000000000 ) ) ;
#230 = EDGE_CURVE ( 'NONE', #81, #201, #62, .T. ) ;
#231 = ORIENTED_EDGE ( 'NONE', *, *, #88, .T. ) ;
#232 = LINE ( 'NONE', #132, #310 ) ;
#233 = EDGE_CURVE ( 'NONE', #226, #63, #85, .T. ) ;
#234 = AXIS2_PLACEMENT_3D ( 'NONE', #60, #144, #349 ) ;
#235 = VERTEX_POINT ( 'NONE', #187 ) ;
#236 = FACE_OUTER_BOUND ( 'NONE', #47, .T. ) ;
#237 = VERTEX_POINT ( 'NONE', #313 ) ;
#238 = PLANE ( 'NONE',  #234 ) ;
#239 = DIRECTION ( 'NONE',  ( -1.000000000000000000, 0.0000000000000000000, 0.0000000000000000000 ) ) ;
#240 = PRESENTATION_STYLE_ASSIGNMENT (( #248 ) ) ;
#241 = CARTESIAN_POINT ( 'NONE',  ( 12.40000000000000200, -3.499999999999999600, 5.000000000000000000 ) ) ;
#242 = CARTESIAN_POINT ( 'NONE',  ( 12.40000000000000200, 9.000000000000001800, 0.0000000000000000000 ) ) ;
#243 = CARTESIAN_POINT ( 'NONE',  ( -3.200000000000000200, 3.500000000000000000, 2.000000000000000000 ) ) ;
#244 = VERTEX_POINT ( 'NONE', #191 ) ;
#245 = VECTOR ( 'NONE', #222, 1000.000000000000000 ) ;
#246 = ORIENTED_EDGE ( 'NONE', *, *, #253, .F. ) ;
#247 = DIRECTION ( 'NONE',  ( -1.000000000000000000, 0.0000000000000000000, 0.0000000000000000000 ) ) ;
#248 = SURFACE_STYLE_USAGE ( .BOTH. , #254 ) ;
#249 = CARTESIAN_POINT ( 'NONE',  ( -6.700000000000000200, 0.0000000000000000000, 5.000000000000000000 ) ) ;
#250 = PRESENTATION_STYLE_ASSIGNMENT (( #260 ) ) ;
#251 = ORIENTED_EDGE ( 'NONE', *, *, #116, .T. ) ;
#252 = ORIENTED_EDGE ( 'NONE', *, *, #61, .F. ) ;
#253 = EDGE_CURVE ( 'NONE', #54, #237, #78, .T. ) ;
#254 = SURFACE_SIDE_STYLE ('',( #167 ) ) ;
#255 =( LENGTH_UNIT ( ) NAMED_UNIT ( * ) SI_UNIT ( .MILLI., .METRE. ) );
#256 = LINE ( 'NONE', #72, #375 ) ;
#257 = LINE ( 'NONE', #125, #7 ) ;
#258 = DIRECTION ( 'NONE',  ( 1.000000000000000000, 0.0000000000000000000, 0.0000000000000000000 ) ) ;
#259 = EDGE_CURVE ( 'NONE', #23, #57, #6, .T. ) ;
#260 = SURFACE_STYLE_USAGE ( .BOTH. , #170 ) ;
#261 = CARTESIAN_POINT ( 'NONE',  ( 12.40000000000000200, -9.000000000000001800, 2.000000000000000000 ) ) ;
#262 = CIRCLE ( 'NONE', #318, 3.500000000000000000 ) ;
#263 = PRODUCT_DEFINITION_CONTEXT ( 'detailed design', #55, 'design' ) ;
#264 = ORIENTED_EDGE ( 'NONE', *, *, #360, .F. ) ;
#265 = FACE_OUTER_BOUND ( 'NONE', #269, .T. ) ;
#266 = CLOSED_SHELL ( 'NONE', ( #181, #300, #156, #25, #284, #163, #311, #367, #304, #131, #103 ) ) ;
#267 = DIRECTION ( 'NONE',  ( -1.000000000000000000, 0.0000000000000000000, 0.0000000000000000000 ) ) ;
#268 = VERTEX_POINT ( 'NONE', #46 ) ;
#269 = EDGE_LOOP ( 'NONE', ( #140, #110, #352, #128 ) ) ;
#270 = EDGE_CURVE ( 'NONE', #65, #23, #183, .T. ) ;
#271 = PLANE ( 'NONE',  #179 ) ;
#272 = EDGE_CURVE ( 'NONE', #48, #235, #232, .T. ) ;
#273 = CARTESIAN_POINT ( 'NONE',  ( 5.099999999999999600, 0.0000000000000000000, 0.0000000000000000000 ) ) ;
#274 = EDGE_LOOP ( 'NONE', ( #193, #205, #53, #309 ) ) ;
#275 = VECTOR ( 'NONE', #208, 1000.000000000000000 ) ;
#276 = DIRECTION ( 'NONE',  ( 1.000000000000000000, 0.0000000000000000000, 0.0000000000000000000 ) ) ;
#277 = DIRECTION ( 'NONE',  ( 0.0000000000000000000, 0.0000000000000000000, -1.000000000000000000 ) ) ;
#278 = AXIS2_PLACEMENT_3D ( 'NONE', #154, #100, #308 ) ;
#279 = CARTESIAN_POINT ( 'NONE',  ( 12.40000000000000200, 3.499999999999999600, 5.000000000000000000 ) ) ;
#280 = VECTOR ( 'NONE', #331, 1000.000000000000000 ) ;
#281 = FACE_OUTER_BOUND ( 'NONE', #109, .T. ) ;
#282 =( NAMED_UNIT ( * ) SI_UNIT ( $, .STERADIAN. ) SOLID_ANGLE_UNIT ( ) );
#283 = CARTESIAN_POINT ( 'NONE',  ( -12.40000000000000200, 9.000000000000001800, 0.0000000000000000000 ) ) ;
#284 = ADVANCED_FACE ( 'NONE', ( #295 ), #369, .F. ) ;
#285 = MECHANICAL_DESIGN_GEOMETRIC_PRESENTATION_REPRESENTATION (  '', ( #227 ), #365 ) ;
#286 = DIRECTION ( 'NONE',  ( 0.0000000000000000000, 0.0000000000000000000, -1.000000000000000000 ) ) ;
#287 = PLANE ( 'NONE',  #42 ) ;
#288 = CARTESIAN_POINT ( 'NONE',  ( -12.40000000000000200, 9.000000000000001800, 2.000000000000000000 ) ) ;
#289 = ORIENTED_EDGE ( 'NONE', *, *, #270, .T. ) ;
#290 = LINE ( 'NONE', #242, #17 ) ;
#291 = LINE ( 'NONE', #293, #96 ) ;
#292 =( GEOMETRIC_REPRESENTATION_CONTEXT ( 3 ) GLOBAL_UNCERTAINTY_ASSIGNED_CONTEXT ( ( #92 ) ) GLOBAL_UNIT_ASSIGNED_CONTEXT ( ( #335, #159, #282 ) ) REPRESENTATION_CONTEXT ( 'NONE', 'WORKASPACE' ) );
#293 = CARTESIAN_POINT ( 'NONE',  ( -3.199999999999999700, -3.500000000000000000, 2.000000000000000000 ) ) ;
#294 = VERTEX_POINT ( 'NONE', #249 ) ;
#295 = FACE_OUTER_BOUND ( 'NONE', #209, .T. ) ;
#296 = MANIFOLD_SOLID_BREP ( 'Importiert1', #266 ) ;
#297 = AXIS2_PLACEMENT_3D ( 'NONE', #165, #108, #321 ) ;
#298 = DIRECTION ( 'NONE',  ( -1.000000000000000000, 0.0000000000000000000, -0.0000000000000000000 ) ) ;
#299 = CARTESIAN_POINT ( 'NONE',  ( 12.40000000000000200, 9.000000000000001800, 5.000000000000000000 ) ) ;
#300 = ADVANCED_FACE ( 'NONE', ( #225, #324 ), #160, .F. ) ;
#301 = ORIENTED_EDGE ( 'NONE', *, *, #259, .T. ) ;
#302 = CIRCLE ( 'NONE', #76, 3.500000000000000000 ) ;
#303 = CARTESIAN_POINT ( 'NONE',  ( 12.40000000000000200, -9.000000000000001800, 5.000000000000000000 ) ) ;
#304 = ADVANCED_FACE ( 'NONE', ( #210 ), #192, .F. ) ;
#305 = FILL_AREA_STYLE ('',( #337 ) ) ;
#306 = AXIS2_PLACEMENT_3D ( 'NONE', #377, #341, #142 ) ;
#307 = DIRECTION ( 'NONE',  ( 0.0000000000000000000, 0.0000000000000000000, -1.000000000000000000 ) ) ;
#308 = DIRECTION ( 'NONE',  ( -1.000000000000000000, 0.0000000000000000000, 0.0000000000000000000 ) ) ;
#309 = ORIENTED_EDGE ( 'NONE', *, *, #36, .F. ) ;
#310 = VECTOR ( 'NONE', #51, 1000.000000000000000 ) ;
#311 = ADVANCED_FACE ( 'NONE', ( #58 ), #314, .F. ) ;
#312 = CARTESIAN_POINT ( 'NONE',  ( 12.40000000000000200, -9.000000000000001800, 5.000000000000000000 ) ) ;
#313 = CARTESIAN_POINT ( 'NONE',  ( 12.40000000000000200, 9.000000000000001800, 0.0000000000000000000 ) ) ;
#314 = PLANE ( 'NONE',  #120 ) ;
#315 = ADVANCED_BREP_SHAPE_REPRESENTATION ( '7228140_CNAJF00', ( #296, #297 ), #27 ) ;
#316 = ORIENTED_EDGE ( 'NONE', *, *, #87, .F. ) ;
#317 = FACE_OUTER_BOUND ( 'NONE', #182, .T. ) ;
#318 = AXIS2_PLACEMENT_3D ( 'NONE', #146, #35, #267 ) ;
#319 =( NAMED_UNIT ( * ) PLANE_ANGLE_UNIT ( ) SI_UNIT ( $, .RADIAN. ) );
#320 = VERTEX_POINT ( 'NONE', #104 ) ;
#321 = DIRECTION ( 'NONE',  ( 1.000000000000000000, 0.0000000000000000000, 0.0000000000000000000 ) ) ;
#322 = ORIENTED_EDGE ( 'NONE', *, *, #136, .T. ) ;
#323 = VECTOR ( 'NONE', #286, 1000.000000000000000 ) ;
#324 = FACE_OUTER_BOUND ( 'NONE', #127, .T. ) ;
#325 = EDGE_LOOP ( 'NONE', ( #339, #52, #216, #166 ) ) ;
#326 = CARTESIAN_POINT ( 'NONE',  ( -3.200000000000000200, 0.0000000000000000000, 0.0000000000000000000 ) ) ;
#327 = ORIENTED_EDGE ( 'NONE', *, *, #342, .F. ) ;
#328 = CARTESIAN_POINT ( 'NONE',  ( 5.100000000000000500, -3.499999999999999600, 5.000000000000000000 ) ) ;
#329 = DIRECTION ( 'NONE',  ( 0.0000000000000000000, 0.0000000000000000000, -1.000000000000000000 ) ) ;
#330 = ORIENTED_EDGE ( 'NONE', *, *, #233, .F. ) ;
#331 = DIRECTION ( 'NONE',  ( 0.0000000000000000000, 1.000000000000000000, 0.0000000000000000000 ) ) ;
#332 = AXIS2_PLACEMENT_3D ( 'NONE', #39, #329, #15 ) ;
#333 = UNCERTAINTY_MEASURE_WITH_UNIT (LENGTH_MEASURE( 1.000000000000000100E-005 ), #255, 'distance_accuracy_value', 'NONE');
#334 = DIRECTION ( 'NONE',  ( 0.0000000000000000000, 0.0000000000000000000, -1.000000000000000000 ) ) ;
#335 =( LENGTH_UNIT ( ) NAMED_UNIT ( * ) SI_UNIT ( .MILLI., .METRE. ) );
#336 = LINE ( 'NONE', #117, #43 ) ;
#337 = FILL_AREA_STYLE_COLOUR ( '', #105 ) ;
#338 = DIRECTION ( 'NONE',  ( -1.000000000000000000, 0.0000000000000000000, -0.0000000000000000000 ) ) ;
#339 = ORIENTED_EDGE ( 'NONE', *, *, #207, .F. ) ;
#340 = VECTOR ( 'NONE', #359, 1000.000000000000000 ) ;
#341 = DIRECTION ( 'NONE',  ( -0.0000000000000000000, -0.0000000000000000000, 1.000000000000000000 ) ) ;
#342 = EDGE_CURVE ( 'NONE', #63, #294, #75, .T. ) ;
#343 = FILL_AREA_STYLE_COLOUR ( '', #69 ) ;
#344 = EDGE_LOOP ( 'NONE', ( #16, #188, #28, #301 ) ) ;
#345 = DIRECTION ( 'NONE',  ( -1.000000000000000000, 0.0000000000000000000, 0.0000000000000000000 ) ) ;
#346 = ORIENTED_EDGE ( 'NONE', *, *, #136, .F. ) ;
#347 = PRODUCT_DEFINITION_SHAPE ( 'NONE', 'NONE',  #83 ) ;
#348 = ORIENTED_EDGE ( 'NONE', *, *, #171, .F. ) ;
#349 = DIRECTION ( 'NONE',  ( 0.0000000000000000000, -0.0000000000000000000, -1.000000000000000000 ) ) ;
#350 = AXIS2_PLACEMENT_3D ( 'NONE', #217, #368, #102 ) ;
#351 = DIRECTION ( 'NONE',  ( -0.0000000000000000000, -0.0000000000000000000, 1.000000000000000000 ) ) ;
#352 = ORIENTED_EDGE ( 'NONE', *, *, #59, .F. ) ;
#353 = CARTESIAN_POINT ( 'NONE',  ( -3.200000000000000200, 3.500000000000000000, 0.0000000000000000000 ) ) ;
#354 = VECTOR ( 'NONE', #90, 1000.000000000000000 ) ;
#355 = DIRECTION ( 'NONE',  ( 0.0000000000000000000, -0.0000000000000000000, -1.000000000000000000 ) ) ;
#356 = EDGE_LOOP ( 'NONE', ( #189, #322, #133, #11, #5 ) ) ;
#357 = DIRECTION ( 'NONE',  ( -1.000000000000000000, 0.0000000000000000000, -0.0000000000000000000 ) ) ;
#358 = PRODUCT_DEFINITION_FORMATION_WITH_SPECIFIED_SOURCE ( 'ANY', '', #223, .NOT_KNOWN. ) ;
#359 = DIRECTION ( 'NONE',  ( 1.000000000000000000, -0.0000000000000000000, 0.0000000000000000000 ) ) ;
#360 = EDGE_CURVE ( 'NONE', #294, #41, #215, .T. ) ;
#361 = DIRECTION ( 'NONE',  ( -0.0000000000000000000, 0.0000000000000000000, 1.000000000000000000 ) ) ;
#362 = ORIENTED_EDGE ( 'NONE', *, *, #173, .T. ) ;
#363 = FACE_OUTER_BOUND ( 'NONE', #344, .T. ) ;
#364 = LINE ( 'NONE', #180, #177 ) ;
#365 =( GEOMETRIC_REPRESENTATION_CONTEXT ( 3 ) GLOBAL_UNCERTAINTY_ASSIGNED_CONTEXT ( ( #14 ) ) GLOBAL_UNIT_ASSIGNED_CONTEXT ( ( #106, #371, #169 ) ) REPRESENTATION_CONTEXT ( 'NONE', 'WORKASPACE' ) );
#366 = DIRECTION ( 'NONE',  ( -1.000000000000000000, 0.0000000000000000000, 0.0000000000000000000 ) ) ;
#367 = ADVANCED_FACE ( 'NONE', ( #134 ), #287, .F. ) ;
#368 = DIRECTION ( 'NONE',  ( 0.0000000000000000000, 0.0000000000000000000, -1.000000000000000000 ) ) ;
#369 = CYLINDRICAL_SURFACE ( 'NONE', #350, 3.500000000000000000 ) ;
#370 = CARTESIAN_POINT ( 'NONE',  ( -12.40000000000000200, -9.000000000000001800, 2.000000000000000000 ) ) ;
#371 =( NAMED_UNIT ( * ) PLANE_ANGLE_UNIT ( ) SI_UNIT ( $, .RADIAN. ) );
#372 = APPLICATION_CONTEXT ( 'automotive_design' ) ;
#373 = MECHANICAL_DESIGN_GEOMETRIC_PRESENTATION_REPRESENTATION (  '', ( #200 ), #292 ) ;
#374 = ORIENTED_EDGE ( 'NONE', *, *, #59, .T. ) ;
#375 = VECTOR ( 'NONE', #307, 1000.000000000000000 ) ;
#376 = FACE_OUTER_BOUND ( 'NONE', #1, .T. ) ;
#377 = CARTESIAN_POINT ( 'NONE',  ( -3.200000000000000200, 0.0000000000000000000, 5.000000000000000000 ) ) ;
ENDSEC;
END-ISO-10303-21;
