ISO-10303-21;
HEADER;
FILE_DESCRIPTION (( 'STEP AP214' ),
    '1' );
FILE_NAME ('7250715',
    '2019-02-01T14:21:10',
    ( '' ),
    ('JUGARD+KÜNSTNER GmbH'),
    'SwSTEP 2.0',
    'SolidWorks 2017',
    '' );
FILE_SCHEMA (( 'AUTOMOTIVE_DESIGN' ));
ENDSEC;

DATA;
#1 = CIRCLE ( 'NONE', #152, 3.200000000000000200 ) ;
#2 = AXIS2_PLACEMENT_3D ( 'NONE', #198, #140, #74 ) ;
#3 = ORIENTED_EDGE ( 'NONE', *, *, #181, .T. ) ;
#4 =( NAMED_UNIT ( * ) SI_UNIT ( $, .STERADIAN. ) SOLID_ANGLE_UNIT ( ) );
#5 = VERTEX_POINT ( 'NONE', #139 ) ;
#6 = CARTESIAN_POINT ( 'NONE',  ( 0.0000000000000000000, 7.347880794884119700E-016, 6.000000000000000000 ) ) ;
#7 = CARTESIAN_POINT ( 'NONE',  ( 0.0000000000000000000, 0.0000000000000000000, 0.0000000000000000000 ) ) ;
#8 = MECHANICAL_DESIGN_GEOMETRIC_PRESENTATION_REPRESENTATION (  '', ( #78 ), #111 ) ;
#9 = CARTESIAN_POINT ( 'NONE',  ( 1.600000000000000100, 0.0000000000000000000, 0.0000000000000000000 ) ) ;
#10 = LINE ( 'NONE', #44, #146 ) ;
#11 = DIRECTION ( 'NONE',  ( 0.0000000000000000000, 0.0000000000000000000, -1.000000000000000000 ) ) ;
#12 = ORIENTED_EDGE ( 'NONE', *, *, #132, .T. ) ;
#13 = DIRECTION ( 'NONE',  ( -1.000000000000000000, 0.0000000000000000000, 0.0000000000000000000 ) ) ;
#14 =( LENGTH_UNIT ( ) NAMED_UNIT ( * ) SI_UNIT ( .MILLI., .METRE. ) );
#15 = PRODUCT_DEFINITION_CONTEXT ( 'detailed design', #18, 'design' ) ;
#16 = VERTEX_POINT ( 'NONE', #37 ) ;
#17 = AXIS2_PLACEMENT_3D ( 'NONE', #39, #72, #210 ) ;
#18 = APPLICATION_CONTEXT ( 'automotive_design' ) ;
#19 = ADVANCED_FACE ( 'NONE', ( #190 ), #50, .T. ) ;
#20 = CIRCLE ( 'NONE', #175, 3.200000000000000200 ) ;
#21 = ORIENTED_EDGE ( 'NONE', *, *, #27, .T. ) ;
#22 = CARTESIAN_POINT ( 'NONE',  ( 0.0000000000000000000, 7.347880794884119700E-016, 6.000000000000000000 ) ) ;
#23 = VERTEX_POINT ( 'NONE', #22 ) ;
#24 = VERTEX_POINT ( 'NONE', #188 ) ;
#25 = DIRECTION ( 'NONE',  ( -1.000000000000000000, -0.0000000000000000000, -0.0000000000000000000 ) ) ;
#26 = LINE ( 'NONE', #118, #186 ) ;
#27 = EDGE_CURVE ( 'NONE', #83, #75, #26, .T. ) ;
#28 = ORIENTED_EDGE ( 'NONE', *, *, #80, .F. ) ;
#29 = DIRECTION ( 'NONE',  ( 0.0000000000000000000, 0.0000000000000000000, -1.000000000000000000 ) ) ;
#30 = CIRCLE ( 'NONE', #2, 3.200000000000000200 ) ;
#31 = CARTESIAN_POINT ( 'NONE',  ( 0.0000000000000000000, 0.0000000000000000000, 0.0000000000000000000 ) ) ;
#32 = ADVANCED_FACE ( 'NONE', ( #199 ), #182, .F. ) ;
#33 = EDGE_LOOP ( 'NONE', ( #47, #180 ) ) ;
#34 = SHAPE_DEFINITION_REPRESENTATION ( #84, #76 ) ;
#35 = COLOUR_RGB ( '',0.7529411764705882200, 0.7529411764705882200, 0.7529411764705882200 ) ;
#36 = ORIENTED_EDGE ( 'NONE', *, *, #92, .F. ) ;
#37 = CARTESIAN_POINT ( 'NONE',  ( 1.600000000000000100, 0.0000000000000000000, -6.000000000000000000 ) ) ;
#38 = ORIENTED_EDGE ( 'NONE', *, *, #52, .F. ) ;
#39 = CARTESIAN_POINT ( 'NONE',  ( 0.0000000000000000000, 0.0000000000000000000, 0.0000000000000000000 ) ) ;
#40 = PRODUCT_DEFINITION ( 'UNKNOWN', '', #99, #15 ) ;
#41 = DIRECTION ( 'NONE',  ( 1.000000000000000000, 0.0000000000000000000, 0.0000000000000000000 ) ) ;
#42 = EDGE_CURVE ( 'NONE', #23, #123, #142, .T. ) ;
#43 = COLOUR_RGB ( '',0.8745098039215686300, 0.9137254901960784000, 1.000000000000000000 ) ;
#44 = CARTESIAN_POINT ( 'NONE',  ( 0.0000000000000000000, 0.0000000000000000000, -3.200000000000000200 ) ) ;
#45 = MANIFOLD_SOLID_BREP ( 'Importiert1', #138 ) ;
#46 =( NAMED_UNIT ( * ) PLANE_ANGLE_UNIT ( ) SI_UNIT ( $, .RADIAN. ) );
#47 = ORIENTED_EDGE ( 'NONE', *, *, #194, .T. ) ;
#48 = CIRCLE ( 'NONE', #109, 6.000000000000000000 ) ;
#49 = FACE_BOUND ( 'NONE', #79, .T. ) ;
#50 = CYLINDRICAL_SURFACE ( 'NONE', #128, 6.000000000000000000 ) ;
#51 = DIRECTION ( 'NONE',  ( 0.0000000000000000000, 0.0000000000000000000, -1.000000000000000000 ) ) ;
#52 = EDGE_CURVE ( 'NONE', #23, #185, #90, .T. ) ;
#53 = DIRECTION ( 'NONE',  ( -1.000000000000000000, 0.0000000000000000000, 0.0000000000000000000 ) ) ;
#54 = PLANE ( 'NONE',  #122 ) ;
#55 = CARTESIAN_POINT ( 'NONE',  ( 0.0000000000000000000, 0.0000000000000000000, 0.0000000000000000000 ) ) ;
#56 = DIRECTION ( 'NONE',  ( 0.0000000000000000000, 0.0000000000000000000, -1.000000000000000000 ) ) ;
#57 = AXIS2_PLACEMENT_3D ( 'NONE', #7, #13, #160 ) ;
#58 = APPLICATION_CONTEXT ( 'automotive_design' ) ;
#59 = DIRECTION ( 'NONE',  ( 1.000000000000000000, 0.0000000000000000000, 0.0000000000000000000 ) ) ;
#60 = FACE_OUTER_BOUND ( 'NONE', #155, .T. ) ;
#61 = EDGE_CURVE ( 'NONE', #5, #75, #20, .T. ) ;
#62 = ORIENTED_EDGE ( 'NONE', *, *, #102, .T. ) ;
#63 = PRESENTATION_LAYER_ASSIGNMENT (  '', '', ( #134 ) ) ;
#64 = AXIS2_PLACEMENT_3D ( 'NONE', #145, #214, #29 ) ;
#65 = VECTOR ( 'NONE', #119, 1000.000000000000000 ) ;
#66 = EDGE_CURVE ( 'NONE', #123, #16, #94, .T. ) ;
#67 = FILL_AREA_STYLE_COLOUR ( '', #43 ) ;
#68 = DIRECTION ( 'NONE',  ( 1.000000000000000000, 0.0000000000000000000, 0.0000000000000000000 ) ) ;
#69 = DIRECTION ( 'NONE',  ( 1.000000000000000000, 0.0000000000000000000, 0.0000000000000000000 ) ) ;
#70 =( GEOMETRIC_REPRESENTATION_CONTEXT ( 3 ) GLOBAL_UNCERTAINTY_ASSIGNED_CONTEXT ( ( #170 ) ) GLOBAL_UNIT_ASSIGNED_CONTEXT ( ( #150, #129, #179 ) ) REPRESENTATION_CONTEXT ( 'NONE', 'WORKASPACE' ) );
#71 = ADVANCED_FACE ( 'NONE', ( #97 ), #106, .F. ) ;
#72 = DIRECTION ( 'NONE',  ( 1.000000000000000000, 0.0000000000000000000, 0.0000000000000000000 ) ) ;
#73 = DIRECTION ( 'NONE',  ( 0.0000000000000000000, 0.0000000000000000000, 1.000000000000000000 ) ) ;
#74 = DIRECTION ( 'NONE',  ( 0.0000000000000000000, 0.0000000000000000000, -1.000000000000000000 ) ) ;
#75 = VERTEX_POINT ( 'NONE', #193 ) ;
#76 = ADVANCED_BREP_SHAPE_REPRESENTATION ( '7250715_CNAJF00', ( #45, #120 ), #70 ) ;
#77 = ORIENTED_EDGE ( 'NONE', *, *, #194, .F. ) ;
#78 = STYLED_ITEM ( 'NONE', ( #171 ), #76 ) ;
#79 = EDGE_LOOP ( 'NONE', ( #130, #213 ) ) ;
#80 = EDGE_CURVE ( 'NONE', #16, #123, #203, .T. ) ;
#81 = ORIENTED_EDGE ( 'NONE', *, *, #27, .F. ) ;
#82 = LINE ( 'NONE', #110, #151 ) ;
#83 = VERTEX_POINT ( 'NONE', #178 ) ;
#84 = PRODUCT_DEFINITION_SHAPE ( 'NONE', 'NONE',  #40 ) ;
#85 = DIRECTION ( 'NONE',  ( 1.000000000000000000, 0.0000000000000000000, 0.0000000000000000000 ) ) ;
#86 = FILL_AREA_STYLE ('',( #67 ) ) ;
#87 = ORIENTED_EDGE ( 'NONE', *, *, #66, .T. ) ;
#88 = DIRECTION ( 'NONE',  ( 0.0000000000000000000, 0.0000000000000000000, -1.000000000000000000 ) ) ;
#89 = DIRECTION ( 'NONE',  ( 1.000000000000000000, 0.0000000000000000000, 0.0000000000000000000 ) ) ;
#90 = CIRCLE ( 'NONE', #164, 6.000000000000000000 ) ;
#91 = CARTESIAN_POINT ( 'NONE',  ( 0.0000000000000000000, 0.0000000000000000000, 0.0000000000000000000 ) ) ;
#92 = EDGE_CURVE ( 'NONE', #83, #24, #30, .T. ) ;
#93 = APPLICATION_PROTOCOL_DEFINITION ( 'draft international standard', 'automotive_design', 1998, #58 ) ;
#94 = CIRCLE ( 'NONE', #184, 6.000000000000000000 ) ;
#95 = ORIENTED_EDGE ( 'NONE', *, *, #61, .T. ) ;
#96 = SURFACE_SIDE_STYLE ('',( #212 ) ) ;
#97 = FACE_OUTER_BOUND ( 'NONE', #101, .T. ) ;
#98 = ORIENTED_EDGE ( 'NONE', *, *, #117, .T. ) ;
#99 = PRODUCT_DEFINITION_FORMATION_WITH_SPECIFIED_SOURCE ( 'ANY', '', #153, .NOT_KNOWN. ) ;
#100 = DIRECTION ( 'NONE',  ( 1.000000000000000000, 0.0000000000000000000, 0.0000000000000000000 ) ) ;
#101 = EDGE_LOOP ( 'NONE', ( #36, #21, #62, #116 ) ) ;
#102 = EDGE_CURVE ( 'NONE', #75, #5, #1, .T. ) ;
#103 = SURFACE_STYLE_USAGE ( .BOTH. , #191 ) ;
#104 =( LENGTH_UNIT ( ) NAMED_UNIT ( * ) SI_UNIT ( .MILLI., .METRE. ) );
#105 = PLANE ( 'NONE',  #57 ) ;
#106 = CYLINDRICAL_SURFACE ( 'NONE', #17, 3.200000000000000200 ) ;
#107 = CARTESIAN_POINT ( 'NONE',  ( 1.600000000000000100, 7.347880794884119700E-016, 6.000000000000000000 ) ) ;
#108 = CIRCLE ( 'NONE', #64, 3.200000000000000200 ) ;
#109 = AXIS2_PLACEMENT_3D ( 'NONE', #55, #89, #11 ) ;
#110 = CARTESIAN_POINT ( 'NONE',  ( 0.0000000000000000000, 0.0000000000000000000, -6.000000000000000000 ) ) ;
#111 =( GEOMETRIC_REPRESENTATION_CONTEXT ( 3 ) GLOBAL_UNCERTAINTY_ASSIGNED_CONTEXT ( ( #166 ) ) GLOBAL_UNIT_ASSIGNED_CONTEXT ( ( #14, #46, #165 ) ) REPRESENTATION_CONTEXT ( 'NONE', 'WORKASPACE' ) );
#112 = ADVANCED_FACE ( 'NONE', ( #49, #196 ), #54, .F. ) ;
#113 = SURFACE_STYLE_FILL_AREA ( #86 ) ;
#114 = ADVANCED_FACE ( 'NONE', ( #136 ), #177, .T. ) ;
#115 = MECHANICAL_DESIGN_GEOMETRIC_PRESENTATION_REPRESENTATION (  '', ( #134 ), #137 ) ;
#116 = ORIENTED_EDGE ( 'NONE', *, *, #117, .F. ) ;
#117 = EDGE_CURVE ( 'NONE', #24, #5, #10, .T. ) ;
#118 = CARTESIAN_POINT ( 'NONE',  ( 0.0000000000000000000, 3.918869757271530500E-016, 3.200000000000000200 ) ) ;
#119 = DIRECTION ( 'NONE',  ( 1.000000000000000000, 0.0000000000000000000, 0.0000000000000000000 ) ) ;
#120 = AXIS2_PLACEMENT_3D ( 'NONE', #31, #127, #59 ) ;
#121 = DIRECTION ( 'NONE',  ( 0.0000000000000000000, 0.0000000000000000000, -1.000000000000000000 ) ) ;
#122 = AXIS2_PLACEMENT_3D ( 'NONE', #9, #53, #73 ) ;
#123 = VERTEX_POINT ( 'NONE', #107 ) ;
#124 = DIRECTION ( 'NONE',  ( 0.0000000000000000000, 0.0000000000000000000, -1.000000000000000000 ) ) ;
#125 = DIRECTION ( 'NONE',  ( 1.000000000000000000, 0.0000000000000000000, 0.0000000000000000000 ) ) ;
#126 = ORIENTED_EDGE ( 'NONE', *, *, #80, .T. ) ;
#127 = DIRECTION ( 'NONE',  ( 0.0000000000000000000, 0.0000000000000000000, 1.000000000000000000 ) ) ;
#128 = AXIS2_PLACEMENT_3D ( 'NONE', #174, #100, #192 ) ;
#129 =( NAMED_UNIT ( * ) PLANE_ANGLE_UNIT ( ) SI_UNIT ( $, .RADIAN. ) );
#130 = ORIENTED_EDGE ( 'NONE', *, *, #61, .F. ) ;
#131 = SURFACE_STYLE_USAGE ( .BOTH. , #96 ) ;
#132 = EDGE_CURVE ( 'NONE', #185, #23, #48, .T. ) ;
#133 = ORIENTED_EDGE ( 'NONE', *, *, #132, .F. ) ;
#134 = STYLED_ITEM ( 'NONE', ( #154 ), #45 ) ;
#135 =( NAMED_UNIT ( * ) PLANE_ANGLE_UNIT ( ) SI_UNIT ( $, .RADIAN. ) );
#136 = FACE_OUTER_BOUND ( 'NONE', #173, .T. ) ;
#137 =( GEOMETRIC_REPRESENTATION_CONTEXT ( 3 ) GLOBAL_UNCERTAINTY_ASSIGNED_CONTEXT ( ( #187 ) ) GLOBAL_UNIT_ASSIGNED_CONTEXT ( ( #104, #135, #4 ) ) REPRESENTATION_CONTEXT ( 'NONE', 'WORKASPACE' ) );
#138 = CLOSED_SHELL ( 'NONE', ( #71, #19, #112, #32, #114, #141 ) ) ;
#139 = CARTESIAN_POINT ( 'NONE',  ( 1.600000000000000100, 0.0000000000000000000, -3.200000000000000200 ) ) ;
#140 = DIRECTION ( 'NONE',  ( 1.000000000000000000, 0.0000000000000000000, 0.0000000000000000000 ) ) ;
#141 = ADVANCED_FACE ( 'NONE', ( #157, #60 ), #105, .T. ) ;
#142 = LINE ( 'NONE', #6, #65 ) ;
#143 = CARTESIAN_POINT ( 'NONE',  ( 1.600000000000000100, 0.0000000000000000000, 0.0000000000000000000 ) ) ;
#144 = CARTESIAN_POINT ( 'NONE',  ( 1.600000000000000100, 0.0000000000000000000, 0.0000000000000000000 ) ) ;
#145 = CARTESIAN_POINT ( 'NONE',  ( 0.0000000000000000000, 0.0000000000000000000, 0.0000000000000000000 ) ) ;
#146 = VECTOR ( 'NONE', #68, 1000.000000000000000 ) ;
#147 = DIRECTION ( 'NONE',  ( 1.000000000000000000, 0.0000000000000000000, 0.0000000000000000000 ) ) ;
#148 = AXIS2_PLACEMENT_3D ( 'NONE', #197, #41, #161 ) ;
#149 = APPLICATION_PROTOCOL_DEFINITION ( 'draft international standard', 'automotive_design', 1998, #18 ) ;
#150 =( LENGTH_UNIT ( ) NAMED_UNIT ( * ) SI_UNIT ( .MILLI., .METRE. ) );
#151 = VECTOR ( 'NONE', #147, 1000.000000000000000 ) ;
#152 = AXIS2_PLACEMENT_3D ( 'NONE', #144, #159, #56 ) ;
#153 = PRODUCT ( '7250715_CNAJF00', '7250715_CNAJF00', '', ( #167 ) ) ;
#154 = PRESENTATION_STYLE_ASSIGNMENT (( #103 ) ) ;
#155 = EDGE_LOOP ( 'NONE', ( #133, #38 ) ) ;
#156 = AXIS2_PLACEMENT_3D ( 'NONE', #189, #206, #51 ) ;
#157 = FACE_BOUND ( 'NONE', #33, .T. ) ;
#158 = ORIENTED_EDGE ( 'NONE', *, *, #66, .F. ) ;
#159 = DIRECTION ( 'NONE',  ( 1.000000000000000000, 0.0000000000000000000, 0.0000000000000000000 ) ) ;
#160 = DIRECTION ( 'NONE',  ( 0.0000000000000000000, 0.0000000000000000000, 1.000000000000000000 ) ) ;
#161 = DIRECTION ( 'NONE',  ( 0.0000000000000000000, 0.0000000000000000000, -1.000000000000000000 ) ) ;
#162 = EDGE_LOOP ( 'NONE', ( #81, #77, #98, #95 ) ) ;
#163 = ORIENTED_EDGE ( 'NONE', *, *, #42, .F. ) ;
#164 = AXIS2_PLACEMENT_3D ( 'NONE', #91, #69, #88 ) ;
#165 =( NAMED_UNIT ( * ) SI_UNIT ( $, .STERADIAN. ) SOLID_ANGLE_UNIT ( ) );
#166 = UNCERTAINTY_MEASURE_WITH_UNIT (LENGTH_MEASURE( 1.000000000000000100E-005 ), #14, 'distance_accuracy_value', 'NONE');
#167 = PRODUCT_CONTEXT ( 'NONE', #58, 'mechanical' ) ;
#168 = FILL_AREA_STYLE ('',( #200 ) ) ;
#169 = ORIENTED_EDGE ( 'NONE', *, *, #42, .T. ) ;
#170 = UNCERTAINTY_MEASURE_WITH_UNIT (LENGTH_MEASURE( 1.000000000000000100E-005 ), #150, 'distance_accuracy_value', 'NONE');
#171 = PRESENTATION_STYLE_ASSIGNMENT (( #131 ) ) ;
#172 = EDGE_LOOP ( 'NONE', ( #28, #158 ) ) ;
#173 = EDGE_LOOP ( 'NONE', ( #163, #183, #3, #126 ) ) ;
#174 = CARTESIAN_POINT ( 'NONE',  ( 0.0000000000000000000, 0.0000000000000000000, 0.0000000000000000000 ) ) ;
#175 = AXIS2_PLACEMENT_3D ( 'NONE', #211, #125, #208 ) ;
#176 = DIRECTION ( 'NONE',  ( -1.000000000000000000, -0.0000000000000000000, -0.0000000000000000000 ) ) ;
#177 = CYLINDRICAL_SURFACE ( 'NONE', #148, 6.000000000000000000 ) ;
#178 = CARTESIAN_POINT ( 'NONE',  ( 0.0000000000000000000, 3.918869757271530500E-016, 3.200000000000000200 ) ) ;
#179 =( NAMED_UNIT ( * ) SI_UNIT ( $, .STERADIAN. ) SOLID_ANGLE_UNIT ( ) );
#180 = ORIENTED_EDGE ( 'NONE', *, *, #92, .T. ) ;
#181 = EDGE_CURVE ( 'NONE', #185, #16, #82, .T. ) ;
#182 = CYLINDRICAL_SURFACE ( 'NONE', #156, 3.200000000000000200 ) ;
#183 = ORIENTED_EDGE ( 'NONE', *, *, #52, .T. ) ;
#184 = AXIS2_PLACEMENT_3D ( 'NONE', #143, #25, #124 ) ;
#185 = VERTEX_POINT ( 'NONE', #209 ) ;
#186 = VECTOR ( 'NONE', #85, 1000.000000000000000 ) ;
#187 = UNCERTAINTY_MEASURE_WITH_UNIT (LENGTH_MEASURE( 1.000000000000000100E-005 ), #104, 'distance_accuracy_value', 'NONE');
#188 = CARTESIAN_POINT ( 'NONE',  ( 0.0000000000000000000, 0.0000000000000000000, -3.200000000000000200 ) ) ;
#189 = CARTESIAN_POINT ( 'NONE',  ( 0.0000000000000000000, 0.0000000000000000000, 0.0000000000000000000 ) ) ;
#190 = FACE_OUTER_BOUND ( 'NONE', #202, .T. ) ;
#191 = SURFACE_SIDE_STYLE ('',( #113 ) ) ;
#192 = DIRECTION ( 'NONE',  ( 0.0000000000000000000, 0.0000000000000000000, -1.000000000000000000 ) ) ;
#193 = CARTESIAN_POINT ( 'NONE',  ( 1.600000000000000100, 3.918869757271530500E-016, 3.200000000000000200 ) ) ;
#194 = EDGE_CURVE ( 'NONE', #24, #83, #108, .T. ) ;
#195 = CARTESIAN_POINT ( 'NONE',  ( 1.600000000000000100, 0.0000000000000000000, 0.0000000000000000000 ) ) ;
#196 = FACE_OUTER_BOUND ( 'NONE', #172, .T. ) ;
#197 = CARTESIAN_POINT ( 'NONE',  ( 0.0000000000000000000, 0.0000000000000000000, 0.0000000000000000000 ) ) ;
#198 = CARTESIAN_POINT ( 'NONE',  ( 0.0000000000000000000, 0.0000000000000000000, 0.0000000000000000000 ) ) ;
#199 = FACE_OUTER_BOUND ( 'NONE', #162, .T. ) ;
#200 = FILL_AREA_STYLE_COLOUR ( '', #35 ) ;
#201 = PRESENTATION_LAYER_ASSIGNMENT (  '', '', ( #78 ) ) ;
#202 = EDGE_LOOP ( 'NONE', ( #12, #169, #87, #205 ) ) ;
#203 = CIRCLE ( 'NONE', #207, 6.000000000000000000 ) ;
#204 = PRODUCT_RELATED_PRODUCT_CATEGORY ( 'part', '', ( #153 ) ) ;
#205 = ORIENTED_EDGE ( 'NONE', *, *, #181, .F. ) ;
#206 = DIRECTION ( 'NONE',  ( 1.000000000000000000, 0.0000000000000000000, 0.0000000000000000000 ) ) ;
#207 = AXIS2_PLACEMENT_3D ( 'NONE', #195, #176, #121 ) ;
#208 = DIRECTION ( 'NONE',  ( 0.0000000000000000000, 0.0000000000000000000, -1.000000000000000000 ) ) ;
#209 = CARTESIAN_POINT ( 'NONE',  ( 0.0000000000000000000, 0.0000000000000000000, -6.000000000000000000 ) ) ;
#210 = DIRECTION ( 'NONE',  ( 0.0000000000000000000, 0.0000000000000000000, -1.000000000000000000 ) ) ;
#211 = CARTESIAN_POINT ( 'NONE',  ( 1.600000000000000100, 0.0000000000000000000, 0.0000000000000000000 ) ) ;
#212 = SURFACE_STYLE_FILL_AREA ( #168 ) ;
#213 = ORIENTED_EDGE ( 'NONE', *, *, #102, .F. ) ;
#214 = DIRECTION ( 'NONE',  ( 1.000000000000000000, 0.0000000000000000000, 0.0000000000000000000 ) ) ;
ENDSEC;
END-ISO-10303-21;
